Разные песни - Кан-кан, аккорды

Прокрутка
Тональность
Шрифт
100
E|----------------------------17-20-17-17-15-15-|
B|----15-15-17-15-13-13-17-18-------------------|
G|-12-------------------------------------------|
D|----------------------------------------------|
A|----------------------------------------------|
E|----------------------------------------------|

E|-17-------17-15----------------------------------|
B|----12-12-------13-13-17-17-15-17-15-17-15-17-15-|
G|-------------------------------------------------|
D|-------------------------------------------------| x2
A|-------------------------------------------------|
E|-------------------------------------------------|

E|-------------------------------------------------------------|
B|-17-13-10-8--8----------------17-13-10-8----8-10-12-15-13-13-|
G|---------------7-9-10-9-7----------------10------------------|
D|--------------------------10---------------------------------|
A|-------------------------------------------------------------|
E|-------------------------------------------------------------|

E|-------------------------------------------------|
B|-13----12----13----12----13----12----13----12----|
G|----12----12----12----12----12----12----12----12-|
D|-------------------------------------------------|
A|-------------------------------------------------|
E|-------------------------------------------------|

E|-----------------------------------------------------|
B|-13--13-13-13-13--13-13-13-13--13-13-13-13--13-13-13-|
G|-----------------------------------------------------|
D|-----------------------------------------------------|
A|-----------------------------------------------------|
E|-----------------------------------------------------|

E|--------------8-8--8-10--------------------------13-12-10-------------|
B|----8-11-10-8-----------10-11-8-8--8-11-10-8--------------13-11-10----|
G|-10------------------------------------------10--------------------12-|
D|----------------------------------------------------------------------|
A|----------------------------------------------------------------------|
E|----------------------------------------------------------------------|

E|--------------8-8--8-10--------------------------8---------|
B|----8-11-10-8-----------10-11-8-8--8-11-10-8-------8-10----|
G|-10------------------------------------------10---------10-|
D|-----------------------------------------------------------|
A|-----------------------------------------------------------|
E|-----------------------------------------------------------|   
 
 

Видео