Разные песни - Build A Wall (OST "Bastion"), аккорды

Прокрутка
Тональность
Шрифт
100
по слогу на каждую ноту

I dig my hole, you build a wall

e-----------------------|
B-----------------------|
G-----------------------|
D---------1-------------|   
A----1-3----3-3-1-3-----|
E--3------------------3-| 

[тсссс]
e---------------------------|
B---------------------------|
G-------1----1----1----1----|       
D-------0----0----0----0----|   
A---------------------------|
E-------3----3----3----3----| 

I dig my hole, you build a wall
e----------------------|
B----------------------|
G----------------------|
D--------1-------------|   
A----1-3---3-1---1-----|
E--3------------3---1--|

e-----------------------|
B----1------------------|
G----1------------------|     
D-----------------------|   
A-----------------------|
E----1------------------|

One day that 
e--------------------------|
B--------------------------|
G------------1-------1-----|       
D------------0-------0-----|   
A--------------------------|
E-------3--------3---------| 

wall is gonna fa-
e-----------------------|
B-----------------------|
G---------4-------4-----|     
D---------3-------3-----|   
A-----------------------|
E---3----------3--------|

-aall
e---------------------------|
B---------------------------|
G---------1-------1------1--|       
D---------0-------0------0--|   
A---------------------------|
E----3--------3----------3--| 

[по аналогии до припева]
Gon' build that city on a hill
Gon' build that city on a hill
Someday those tears are gonna spill

[pripev]
So build that wall and build it strong
e---------------------------------------|
B---------8-------8-------8-------8-----|
G---------8-------8-------8-------8-----|     
D---------------------------------------|   
A----6--------6-------6-----------------|
E-------------------------------6-------|

build it strong   'Cause
e---------------------------------------|
B---------5-------5-------5-------5-----|
G---------4-------4-------4-------4-----|     
D---------------------------------------|   
A----5--------5-------5-------5---------|
E---------------------------------------|

we'll be there be-
e---------------------------------------|
B---------8-------8-------8-------8-----|
G---------8-------8-------8-------8-----|     
D---------------------------------------|   
A----6--------6-------6-----------------|
E-------------------------------6-------|

-fore too long
e----------------------------------------|
B---------5----------5-------------------|
G---------4----------4-------------------|     
D----------------------------------------|   
A----5---------5----------5--------------|
E----------------------------------------|

Gon' build that wall up to the sky
Gon' build that wall up to the sky
Someday your bird is gonna fly

Gon' build that wall until it's done
Gon' build that wall until it's done
But now you've got nowhere to run

So build that wall and build it strong
'Cause we'll be there before too long
 
 

Видео