Разные песни - Гимн восходящего солнца, аккорды

Прокрутка
Тональность
Шрифт
100
  Am                 C            D             F
1|-0-------------0-------------2-------------1---------------|
2|-----------1---1---------1---1---------1---1---------1---2-|
3|---------2-------------2-------------2-------------2-------|
4|--------------------2-0------------------------------------|
5|-----0-------------0-3-------------------------0-3---------|
6|-0---------------------------------------------------------|

  Am               C            E              
1|----------0------------0------------0------------0---|
2|--------1---1--------1---1--------0---0--------0---0-|
3|------2------------2------------0-------0----0-------|
4|-----------------------------------------------------|
5|---0-----------0-3----------3-2----------------------|
6|-0-----------------------------------------0---------|

  Am                 C            D             F
1|-0-------------0-------------2-------------1---------------|
2|-----------1---1---------1---1---------1---1---------1---2-|
3|---------2-------------2-------------2-------------2-------|
4|--------------------2-0------------------------------------|
5|-----0-------------0-3-------------------------0-3---------|
6|---0-------------------------------------------------------|

  Am                 E           Am              E  
1|-0-------------0-------------0-------------0-------------|
2|-----------1---1---------0---0---------1---1---------0---|
3|---------2-------------0-------------2-------------0-----|
4|---------------------------------------------------------|
5|-----0-------------0-2----------2-0-----------0-0-2------|
6|---0-----------------------------------------------------|
 
 
Свернуть Распечатать

Видео