Разные песни - 7:40 (Еврейский народный танец), аккорды

Прокрутка
Тональность
Шрифт
100
1-я часть: x2
1)------------------------------------
2)0---0---0---0-3--0-3-0-3-0-3-7-3-7-5
3)---0---0---0------------------------
4)------------------------------------
5)------------------------------------
6)------------------------------------

1)------------------------------------
2)-2-5-3--0-3-2-7---------------------
3)------------------------------------
4)------------------------------------
5)------------------------------------
6)------------------------------------

2-я часть: x1
1)------------------------------------
2)-7-8-10-8-7-5-3---------------------
3)------------------------------------
4)------------------------------------
5)------------------------------------
6)------------------------------------

(}}повторить 2 раза)


1)------------------------------------
2)-7-8-10-12-10-8-7-5-8-7-5-5---------
3)------------------------------------
4)------------------------------------
5)------------------------------------
6)------------------------------------

1)------------------------------------
2)-5-7-8-10-8-7-5-3-6-5-3-3-----------
3)------------------------------------
4)------------------------------------
5)------------------------------------
6)------------------------------------

1)------------------------------------
2)-7-7-5-5-3-3-1-1-0-0----------------
3)------------------------------------
4)------------------------------------
5)------------------------------------
6)------------------------------------
 
 
Свернуть Распечатать

Видео