Разные песни - Мем "Shooting Stars", аккорды

Прокрутка
Тональность
Шрифт
100
E--------------------        E--------------------            
B--4--4-5--0---------        B--4-5-0-------------            
G--------------1/5--- x1     G----------1/5------- x2 
D--------------------        D--------------------             
A--------------------        A--------------------             
E--------------------        E--------------------            

E--------------------
B--4-5-4-0-----------
G------------1/5----- x1 
D--------------------
A--------------------
E--------------------

E-2--2-4-------------        E--2-4--------------
B----------4------1/4        B--------4-------1/4
G-------------------- x1     G------------------- x2 
D--------------------        D------------------- 
A--------------------        A------------------- 
E--------------------        E-------------------

E-2-4-2-0------------
B-----------1/5------
G-------------------- x1 
D--------------------
A--------------------
E--------------------

E--6-6--7------------        E-6-7---------------
B-----------7---4/7--        B--------7-----4/7-- 
G-------------------- x1     G------------------- x2 
D--------------------        D-------------------
A--------------------        A-------------------
E--------------------        E-------------------

E--6-7-6-5-----------
B------------4/7-----
G-------------------- x1 
D--------------------
A--------------------
E--------------------

Комментарий автора:

Чё, пацаны, мемы?
 
 
Свернуть Распечатать

Видео