Разные песни - Graze the Roof (Крыша) (OST "Plants vs Zombies" ("Растения против зомби"), аккорды новинка

Прокрутка
Тональность
Шрифт
100
E||---------------------------|---------------------------|--5------------------------|
B||---------------------------|---------------------4--5--|---------4--5--------4--5--|
G||---------2-----------------|---------2-----------------|---------2-----2-----------|
D||-----2-2----2-----2-----2--|-----2-2----2-----2-----2--|-----2-2----2-----2-----2--|
A||--0------------------------|--0------------------------|--0------------------------|
D||---------------------------|---------------------------|---------------------------|

--3---------3--------3--1--|-----0---------------------|--------------------------|
-----4---5-----5-----------|--3------3--1--------------|-----3--5--3--------4--5--|
---------5--------------0--|---------------2-----0--2--|--5-----------5-----------|
-----5-5----5-----5--------|---------0-----------------|--------3--------0-----2--|
--3------------------------|-----0-0----0-----0-----0--|-----3--------------------|
---------------------------|--0------------------------|--3-----------5-----------|

--5------------------------|--3---------3--------3--1--|-----0---------------------|
---------4--5--------4--5--|-----4---5-----5-----------|--3------3--1--------------|
---------2-----2-----------|---------5--------------0--|---------------2-----0--2--|
-----2-2----2-----2-----2--|-----5-5----5-----5--------|---------0-----------------|
--0------------------------|--3------------------------|-----0-0----0-----0-----0--|
---------------------------|---------------------------|--0------------------------|

--------------------------|---------------------------|------------0--------------|
-----3--5--3--------3-----|------------1--------------|------------1--------------|
--5-----------5--------2--|--L----2-------2-----0--2--|--2----2-------2-----0--2--|
--------3--------0--------|-----2---2--------2--------|-----2---2--------2--------|
-----3--------------------|--0---------0-----------0--|--3---------3-----------3--|
--3-----------5-----------|---------------------------|---------------------------|

---------------------------|-----0--------------------|---------------------------|
------------1--------------|--------------------------|------------1--------------|
--2------------2-----0--2--|--2-----2--0-----5-----0--|--2----2-------2-----0--2--|
-------0----------0--------|--------------7-----7-----|-----2---2--------2--------|
-----0---0-----------------|-----3-----------5--------|--0---------0-----------0--|
--0---------0-----------0--|--3--------3--5--------0--|---------------------------|

------------0--------------|---------------------------|-----0--------------------|
------------1--------------|------------1--------------|-----------------1--4--5--|
--2----2-------2-----0--2--|--2------------2-----0--2--|--2-----2--0--2-----------|
-----2---2--------2--------|-------0----------0--------|-----------------0-----2--|
--3---------3-----------3--|-----0---0-----------------|-----3--------------------|
---------------------------|--0---------0-----------0--|--3--------3--5-----------|

--5------------------------|--3---------3--------3--1--|-----0---------------------|
---------4--5--------4--5--|-----4---5-----5-----------|--3------3--1--------------|
---------2-----2-----------|---------5--------------0--|---------------2-----0--2--|
-----2-2----2-----2-----2--|-----5-5----5-----5--------|---------0-----------------|
--0------------------------|--3------------------------|-----0-0----0-----0-----0--|
---------------------------|---------------------------|--0------------------------|

--------------------------|--5------------------------|--3---------3--------3--1--|
-----3--5--3--------4--5--|---------4--5--------4--5--|-----4---5-----5-----------|
--5-----------5-----------|---------2-----2-----------|---------5--------------0--|
--------3--------0-----2--|-----2-2----2-----2-----2--|-----5-5----5-----5--------|
-----3--------------------|--0------------------------|--3------------------------|
--3-----------5-----------|---------------------------|---------------------------|
   
-----0---------------------|--------------------------|---------------------------|
--3------3--1--------------|-----3--5--3--------3-----|---------------------------|
---------------2-----0--2--|--5-----------5--------2--|--L------2-----------------|
---------0-----------------|--------3--------0--------|-----2-2----2-----2-----2--|
-----0-0----0-----0-----0--|-----3--------------------|--0------------------------|
--0------------------------|--3-----------5-----------|---------------------------|

---------------------------|--0---------------------------|---------------3------0------|
------------------------0--|--1----3----1----3-----5---1--|--3--------------------------|
---------2-----------2-----|-------4----2----4-----5---2--|--4--------------------------|
-----2-2----2-----2--------|------------3--------------3--|------------2-------------2--|
--0------------------------|-------3-------------3--------|-------2------------2--------|
------------------------2--|--3------------3--------------|--2------------2-------------|

-----0---1------0-------------|----------------0------5------|--5------------3------1------|
--4----------4--0--3-------0--|--1------3-------------5------|-----------------------------|
-----------------------5------|--2------4--------------------|-----------------------------|
------------------------------|------------------------------|------------3-------------3--|
-------------0-------------2--|--0----2--------3----4-----0--|-------3------------3--------|
--0----3--------2----6--------|-------------5----------------|--3------------3-------------|

--0-------------------0------|-----0---1------0-------------|----------------0------5------|
--0------------0-------------|--4----------4--0--3-------0--|--1------3-------------5------|
-----------------------------|-----------------------5------|--2------4--------------------|
------------2-------------2--|------------------------------|------------------------------|
-------2------------2--------|-------------0-------------2--|--0----2--------3----4-----0--|
--2------------2-------------|--0----3--------2----6--------|-------------5----------------|

--1--0-1-0----------------------|-----------12----------|-----------------------|
-----------3--1--0--------------|-----------------------|-----------1--0--------|
--------------------2-4-2-0-----|-----------------------|----0--2---2--------2--|
-----------------------------3--|--2--------------------|--2--------------2-----|
--------------------------------|-----------------------|--0-----------0--------|
--3--------------0--------------|--2--------------------|-----------------------|
 
-------------------------|-------------------------|--0------------------------|
-----------1--0----------|--------------4----------|--0------------------------|
----0--2---2--------2----|----0--2---5--------5----|---------------------------|
--2--------------2-------|--3--------3-------------|---------2-----------------|
--0-----------0----------|-----------------3-------|-----2-2----2--------------|
-------------------------|--3-----------3----------|--2---------------2--4--6--|

---------------------------|---------------------------|---------------------------|
------------1--0-----------|------------1--0-----------|---------------4-----------|
----0--2----2--------2-----|----0--2----2--------2-----|----0--2----5--------5-----|
--2---------------2--------|--2---------------2--------|--3---------3-----3--------|
--0------0-----0--------0--|--0------0-----0--------0--|---------------------------|
---------------------------|---------------------------|--3------3-----3--------3--|

  E   
--0-------------------------|--------0-1--1-0-------------|--0-1-0----------------0-----|
--0-------------------------|--3-2-3----------3--------6--|--------3-1--1-0----------1--|
----------------------------|--------------------5--4-----|-----------------2-----------|
---------2------------2-----|--0--------------------------|--------------------2--------|
-----2-2----2-----2-2----2--|-----------------------------|--3--------------------------|
--2------------2------------|-----------------5-----------|-----------------3-----------|

----0------------------------|------------------0-----0-5-3---0-|--------0-1--1-0------------|
--3---3-1-0--0------------0--|--------0-1-0-1-3-----1-------6---|--3-2-3----------3--------6-|
---------------2-1--1--2-----|--2-1-2-------------2-------------|--------------------5--4----|
-----------------------------|----------------------------------|--0-------------------------|
--2--------------------------|--0-------2-------3-------4-------|----------------------------|
-----------------2-----------|----------------------------------|-----------------5----------|

--0-1-0----------------0-----|----0------------------------|--0-----------------------||
--------3-1--1-0----------1--|--3---3-1-0--0------------0--|--0------------------4--5-||
-----------------2-----------|---------------2-1--1--2-----|--------------------------||
--------------------2--------|-----------------------------|---------2--------------2-||
--3--------------------------|--2--------------------------|-----2-2----2-----2-------||
-----------------3-----------|-----------------2-----------|--2-----------------------||

Комментарий автора:

если сложно, басы можно не играть
 
 
Свернуть Распечатать

Видео