Разные песни - Гимн Франции ("Марсельеза"), аккорды

Прокрутка
Тональность
Шрифт
100
e|--------------------------------------------------------------
B|-----------------3---0------0-------1-------------------------
G|--------0-0--2-2------0---0---0-----------0--------0-2--4-4-4-
D|-0-0--0---------------------------2----4----------------------
A|--------------------------------------------------------------
E|--------------------------------------------------------------

e|----------------------------------------------------------------
B|-1---------------1-1-1-3-1-0-----3-33-0----3-0--------------1---
G|---4--4-4-2--2-4------------------------0-------0----------2-2--
D|--------------------------------------------------0-0--0-4----4-
A|----------------------------------------------------------------
E|----------------------------------------------------------------

e|--------------------------------------------------------------
B|----------------------------------1-3-------------------------
G|-2-0--------0-0-0---0-2-2--3-33-3-----2---3-2-00-0-3-2-0-0----
D|--------3-2-------4----------------------------------------4--
A|--------------------------------------------------------------
E|--------------------------------------------------------------

e|-------------------------------------------------0---0------------
B|-3333--3-0-----3333--3-0-------333-3---------1--3------3--0-1-----
G|-----------0-2-----------0-2----------0-2-4--------2----------2-0-
D|-----------------------------------0------------------------------
A|------------------------------------------------------------------
E|------------------------------------------------------------------
 
 

Видео