Разные песни - Цыганочка, аккорды

Прокрутка
Тональность
Шрифт
100
Вот простенькая основная тема:
E|-3-1-3-1-1-0-1-0-0---0---------0--3-1-3-1-1-0-1-0-0-0-2-4-5-5 
B|-------------------3---3-3-1-3------------------------------- 
G|------------------------------------------------------------- 
D|-0--------------------------------0-------------------------- 
A|---------0---------------0----------------0---------------0-- 
E|-----------------0--------------------------------0---------- 

Ей можно аккомпонировать на 2-ой гитаре 
аккордами: Dm Am E (E7) Am  A (A7) - 
и повторяешь это сколько захочешь. 

А вот типа вариации (можно второй гитаре):  
E|-------5-7-5-------5-7-5-------4-5-4-------5-7-5-7-5--------- 
B|-----6---6-6-----5---5-5-----3---3-3-----5---5-5-5-5--------- 
G|---7-----7-7---5-----5-5---4-----4-4---5-----5-5-5-5--------- 
D|-0----------------------------------------------------------- 
A|-------------0-----------------------0----------------------- 
E|-------------------------0----------------------------------- 
 
E|---5-7-5---5-7-5---4-5-4---5-5-5-- 
B|---6-6-6---5-5-5---3-3-3---5-5-5-- 
G|---7-7-7---5-5-5---4-4-4---5-5-5-- 
D|-0-------------------------------- 
A|---------0---------------0-------- 
E|-----------------0---------------- 

А потом что-то типа соло:  
E|-12-10-12-10-10-8-10-8-8-7-8-7-7-5-7-5-----------------------4-5-4-3-2-
B|---------------------------------------8-6-8-6-6-5-6-5-5-5-7-----------
G|-----------------------------------------------------------------------
 
E|-----------------------4-5-5- 
B|-8-6-8-6-6-5-6-5-5-5-7-----5- 
G|---------------------------5- 
A|---------------------------0-

	Dm		Am		E		Am
I------------1—3-1-----------0-1-0----------0----------------------0-1-0-
I---------3------------------1----------------0---3-0---------------1----
I------2------------------2-----------------1---------------------2------
I----0-------------------------------------------------------------------
I---------------------0-----------------2-------------------0------------
I------------------------------------------------------------------------
 
 
Свернуть Распечатать

Видео