Разные песни - Гимн России, аккорды

Прокрутка
Тональность
Шрифт
100
e---------------------------------------------------1-3-0-------------|
B----1----------------------------------------0-2-4-------------------|
G--0-----0--2-4-----2--0---0--------------2-3-3-----------------------|
D---------------22-------3------------0-0-----------------------------|
A-------------------------------3-3-----------------------------------|
E---------------------------------------------------------------------|

  Россия- священная наша держава Россия любимая наша страна

e---------------------------------------------------------------------|
B---0-------------------------------------------1---------------------|
G-0-----3-1-3-----1-0---0-------2---0---0----------4-2-0--------------|
D-------------00------2-----22--------3-------------------------------|
A------------------------------------------3-3------------------------|
E---------------------------------------------------------------------|
  Могучая воля великая слава -твое достоянье на все времена

e-0--------------------------------------------------------------1-1--|
B------3-1-0-1-3--------1---0-------0------1---0-1---0-1----1---------|
G------------------0-0--------2-0-2----------2-----2------2-----------|
D----------------------------- -------3-3-----------------------------|
A---------------------------------------------------------------------|
E---------------------------------------------------------------------|
 Сла-ався-а-а Атечество на-аше свобо-одное братских народов союз вековой

e-1---0-------0-------------------------------------------------------|
B-------3-1-3---1-1--3---1-0---0-2-------1-0---------------1-0--------|
G----------------------------2---------------2-0---------------2-0--0-|
D---------------------------------22----------------------------------|
A-------------------------------------------------------3-3-----------|
E---------------------------------------------------------------------|

Пре-е-едками данна-я мудрость народная   слався страна мы гордимся тобой (для повторения)

e-1---0-------0-------------------------------------------------------|
B-------3-1-3---1-1--3---1-0---0-2-------1-0--------------------0-0-1-|
G----------------------------2---------------2-0------------0-2-------|
D---------------------------------22----------------------------------|
A-------------------------------------------------------3-3-----------|
E---------------------------------------------------------------------|

Пре-е-едками данна-я мудрость народная   слався страна мы гордимся тобой (для окончания)


Весь текст:

Россия -священная наша держава, 
Россия -любимая наша страна.
Могучая воля Великая слава - 
Твое достоянье на все времена!

   Слався, Отечечтво наше свободное,
   Братских народов союз вековой,
   Предками данная мудрость народная!
   Слався страна! Мы гордимся тобой!

От южных морей до полярного края
Раскинулись наши леса и поля.
Одна ты на свете одна ты такая -
Хранимая богом родная земля!

Широкий простор для мечты и для жизни 
Грядущие нам открывают года,
Нам силу дает наша верность Отчизне.
Так было, так есть и так будет всегда!