Разные песни - Цыганочка, аккорды

Прокрутка
Тональность
Шрифт
100
E||----------0-----|----------0-----|----------0-----|----1-0-----------|
B||--------3----3--|--------3----3--|--------2----2--|--3-----3---------|
G||------3------3--|------2------2--|------0------0--|----------2-------|
D||----0--------0--|----0--------0--|----2--------2--|--0---------3-2-0-|
A||----------------|----------------|--0-------------|------------------|
E||--3-------------|--1-------------|----------------|------------------|

---------0---0---|---------0---0---|---------1-0-----|------------------|
-------3---3---3-|-------3---3---3-|-------2-----3-2-|--3---------------|
-----3-----------|-----2-----------|-----0-----------|----2-------------|
---0-------------|---3-------------|---2-------------|--0---3-2-0-------|
-------------1---|-0---------------|---------0-------|------------3-1-0-|
-3---------------|-------------1---|-0---------------|------------------|

----------0-----|----------0-----|----------0-----|----1-0-----------|
--------3----3--|--------3----3--|--------2----2--|--3-----3---------|
------3------3--|------2------2--|------0------0--|----------2-------|
----0--------0--|----0--------0--|----2--------2--|--0---------3-2-0-|
----------------|----------------|--0-------------|------------------|
--3-------------|--1-------------|----------------|------------------|

---------0---0---|---------0---0---|---------1-0-----|------------------|
-------3---3---3-|-------3---3---3-|-------2-----3-2-|--3---------------|
-----3-----------|-----2-----------|-----0-----------|----2-------------|
---0-------------|---3-------------|---2-------------|--0---3-2-0-------|
-------------1---|-0---------------|---------0-------|------------3-1-0-|
-3---------------|-------------1---|-0---------------|------------------|

----0-----0--|----0--------|-----0-----0--|-----0--------|-----0--------|
----3-----3--|----3-----3--|-----2-----2--|-----3-----3--|-----3-----3--|
----3-----0--|----2-----2--|-----3-----3--|-----2-----5--|-----3-----3--|
-------------|----------0--|--------------|-----------0--|-----------0--|
-------1-----|-0-----------|--------------|--------------|--------------|
-3-----------|-------1-----|--0-----3-----|--1-----2-----|--3-----4-----|

----0--------|----0-----0--|-----0--------|-----0-----0--|-----0--------|
----3-----3--|----3--------|-----3-----3--|-----3-----3--|-----3-----3--|
----2-----0--|----1-----0--|-----2-----2--|-----3-----0--|-----2-----2--|
----------0--|-------------|--0--------0--|--------------|-----------0--|
-0-----1-----|-2-----4-----|--------------|--------1-----|--0-----------|
-------------|-------------|--------1-----|--3-----------|--------1-----|

----0-----0--|----0--------|-----0--------|-----0--------|-----0-----0--|
----2-----2--|----3-----3--|-----3-----3--|-----3-----3--|-----3--------|
----3-----3--|----2-----5--|-----3-----3--|-----2-----0--|-----1-----0--|
-------------|----------0--|-----------0--|-----------0--|--------------|
-------------|-------------|--------------|--0-----1-----|--2-----4-----|
-0-----3-----|-1-----2-----|--3-----4-----|--------------|--------------|

-----0--------|----------0-----|----------0-----|----------0-----|
-----3-----3--|----3--------3--|----3--------3--|----2--------2--|
-----2-----2--|------3------3--|------2------2--|------0------0--|
--0--------0--|--------0-------|--------0-------|--------2-------|
--------------|----------------|----------------|--0-------0-----|
--------1-----|--3-------3-----|--1-------1-----|----------------|

----------0-----|----0-----0-----|----0-----0-----|----------0-----|
----3-0------3--|------3------3--|------3------3--|----2--------2--|
-------------4--|--------3----0--|--------2----2--|------0------0--|
--------3-------|----------------|----------------|--------2-------|
----------------|----------1-----|--0-------------|----------0-----|
--4-------4-----|--3-------------|----------1-----|--0-------------|

---------0------|----------0-----|----------0-----|----------0-----|
---------3------|----3--------3--|----3--------3--|----2--------2--|
---------2------|------3------3--|------2------2--|------0------0--|
--0------3------|--------0-------|--------0-------|--------2-------|
----------------|----------------|----------------|--0-------0-----|
----------------|--3-------3-----|--1-------1-----|----------------|

----------0-----|----0-----0-----|----0-----0-----|----------0-----|
----3-0------3--|------3------3--|------3------3--|----2--------2--|
-------------4--|--------3----0--|--------2----2--|------0------0--|
--------3-------|----------------|----------------|--------2-------|
----------------|----------1-----|--0-------------|----------0-----|
--4-------4-----|--3-------------|----------1-----|--0-------------|

---------0------||
---------3------||
---------2------||
--0------3------||
----------------||
----------------||

   Dm		    Am		      E		          Am
e|---------1—3-1-----------0-1-0----------0----------------------0-1-0-|
B|------3------------------1----------------0---3-0---------------1----|
G|---2------------------2-----------------1---------------------2------|
D|-0-------------------------------------------------------------------|
A|------------------0-----------------2-------------------0------------|
E|---------------------------------------------------------------------|
 
 

Видео