Разные песни - Я иду по мостовой, аккорды

Прокрутка
Тональность
Шрифт
100
5|-0-0-3-3--2--0-| Am
    Я иду по мостовой
                          Dm
    С красивой девушкой одной
                    E
    А она мне невзначай

1|-0--3-1-0-----------|
2|-----------0--3---1-|  Am
    Ты заходи ко мне на чай

5|-0-0-3-3--2--0-| Am
    Вот сидим мы пьем чай
                      Dm
    Муж заходит невзначай
                  E
    А куда меня девать

1|-0--3-1-0-----------|
2|-----------0--3---1-|  Am
    А запихнула под кровать

5|-0-0-3-3--2--0-| Am
    Под кроватью было пыльно
                          Dm
    Мне чихнуть хотелось сильно
                    E
    Они что-то говорят

1|-0--3-1-0-----------|
2|-----------0--3---1-|  Am
    Я сорок раз чихнул подряд

5|-0-0-3-3--2--0-| Am
    Муж к кровати подошел
                  Dm
    Меня милого нашел
                     E
    И давай меня ласкать

1|-0--3-1-0-----------|
2|-----------0--3---1-|  Am
    А во все стороны швырять

5|-0-0-3-3--2--0-| Am
    То на север, то на юг
                        Dm
    Стало мне хреново вдруг
                     E
    Кулаком перекрестил

1|-0--3-1-0-----------|
2|-----------0--3---1-|  Am
    И вниз по лестнице спустил

5|-0-0-3-3--2--0-| Am
    Вот лечу я не спеша
                 Dm
    Со второго этажа
                    E
    А она мне невзначай

1|-0--3-1-0-----------|
2|-----------0--3---1-|  Am
    Ты заходи еще на чай

5|-0-0-3-3--2--0-| Am
    Не хожу я больше в гости
                      Dm
    У меня болят все кости
                          E
    Я вам совет полезный дам

1|-0--3-1-0-----------|
2|-----------0--3---1-|  Am
    Вы не ходите по бл...ям

Комментарий автора:

В тех местах, где аккорды - играется шестеркой (V_v^_^v^)
 
 
Свернуть Распечатать