Разные песни - Школьный годы, аккорды

Прокрутка
Тональность
Шрифт
100
Вступление
e|----1-------0-------0-----------
b|--3---3---3---3---3---3---3---3-
g|-2-2-2-2-2-2-2-2-0-0-0-0-0-0-0-0
d|0-------------------------------
a|--------3-------2-------1---0---
e|--------------------------------

Dm 
Школьные годы
C
Кончается в жизни этап
Am
Всем нам немного грустно
Dm
Но их не вернуть назад

Припев:
   Dm      F      C       Am
e|-1-------5------3-------0-
b|--------------------------
g|--------------------------
d|-0------------------------
a|----------------3-------0-
e|---------6----------------

Dm F C
Они уйдут захлопнув дверь
Am Dm
К ним не воротишься теперь
Dm F C
Лишь свет прохожих фонарей
Am Dm
напомнит мне а той поре

Dm 
так долго в школе учились
C
но годы промчались их нет
Am
и как вернуть их обратно 
Dm 
увы ответа нет

Припев:
   Dm      F      C       Am
e|-1-------5------3-------0-
b|--------------------------
g|--------------------------
d|-0------------------------
a|----------------3-------0-
e|---------6----------------

Dm F C
Они уйдут захлопнув дверь
Am Dm
К ним не воротишься теперь
Dm F C
Лишь свет прохожих фонарей
Am Dm
напомнит мне а той поре

Dm 
Последний экзамены сдали
C
последний звонок прозвенел
Am
ну все досвидания школа
Dm 
назад дороги нет

Припев:
   Dm      F      C       Am
e|-1-------5------3-------0-
b|--------------------------
g|--------------------------
d|-0------------------------
a|----------------3-------0-
e|---------6----------------

Dm F C
Они уйдут захлопнув дверь
Am Dm
К ним не воротишься теперь
Dm F C
Лишь свет прохожих фонарей
Am Dm
напомнит мне а той поре

Комментарий автора:

Простым боем на свое усмотрение. 
Последний припев играется медленно каждый (парный) звук играется вместо аккорда
Песня написанна мною Все права принадлежат мне Занин Эдуард
 
 
Свернуть Распечатать