Разные песни - Одноклассница (гр. Охота), аккорды

Прокрутка
Тональность
Шрифт
100
F#m
         Hm              C#7 
Нелегкий ветер ласкает висок, 
           F#m               D 
Пустынный берег и теплый песок, 
         Hm        E          A  F#m 
Плывет куда-то одинокий катерок. 
Гуляют в парке влюбленные пары,  
И кто-то тихо поет под гитару,         
       Hm              C#7            F#m                                                   
И отзвенел последний школьный наш звонок.                                       

Припев: 
      Hm        E 
Одноклассница моя, 
      A        D 
Синеглазая девчонка, 
      Hm            C#7  
Вот и все, прости, прощай, 
F#m             F# 
И ничего не забывай. 
Было детство и прошло, 
Все пропето песней звонкой, 
До свиданья, наш последний 
         F#m 
Школьный май

Соло

Последний луч от вечерней зари, 
Как март-волшебник, зажжет фонари, 
У нас, конечно, все с тобою впереди. 
И может все это нам будет сниться, 
И эта ночь, и слеза на реснице,            
И голос твой: "Побудь со мной, 
Не уходи". 

Припев:
Соло

Комментарий автора:

Бой - шестерка. Соло не уверен, что правильно подобранное, но вроде бы похоже:)
Соло: 
E||------------|-----------------------|-----------------------|
B||------------|-----------------------|-----------------------|
G||--4----4----|--4------2--4--2----1--|-----------------------|
D||------------|-----------------------|------------4-----2----|
A||------------|-----------------------|-----------------------|
E||------------|-----------------------|-----------------------|
  
------------------------|----------------------|------------------------|
------------------------|----------------------|------------------------|
------------------------|----------------------|------------------------|
--7------6--7--6-----6--|-----4------6----4----|--0----------6--4-------|
------------------------|----------------------|-------2-------------4--|
------------------------|----------------------|------------------------|
               
-----------------------||
-----------------------||
-----------------------||
-------3----6----7--4--||
-----------------------||
-----------------------||
 
 
Свернуть Распечатать