Разные песни - Старинная французская мелодия, аккорды

Прокрутка
Тональность
Шрифт
100
E||---7-----------5--------3--|--2-----0-----------------|
B||---------0-----------5-----|--------------3-----------|
G||*-----0-----0-----6--------|-----2-----2--------0-----|
D||*--------------------------|-----------------0--------|
A||---------------0-----------|--0-----------------------|
E||---0-----------------------|--------------3--------2--|

--0-----3p--2--3--------0--|-----0--------------------|
---------------------1-----|--3-----3-----0--------0--|
-----0------------0--------|--------------------0-----|
---------------------------|--0--------------0--------|
---------------3-----------|--------------------------|
--0------------------------|--------------3-----------|

--7-----------5--------3--|--2-----0-----------------|
--------0-----------5-----|--------------3-----------|
-----0-----0-----6--------|-----2-----2--------0-----|
--------------------------|-----------------0--------|
--------------0-----------|--0-----------------------|
--0-----------------------|--------------3--------2--|

--0-----3p--2--3--------0--|--------------0------------||
---------------------1-----|--4--2--4------------------||
-----0------------0--------|-----------------------0--*||
---------------------------|--------------------2-----*||
---------------3-----------|--2--------------2---------||
--0------------------------|--------------0------------||

----------0-------------0-----|----------0-------------0-----|
------0-------------2------2--|------0-------------2------2--|
----0---0----0----2---2-------|----0---0----0----2---2-------|
------------------------------|------------------------------|
----------------0-------------|----------------0-------------|
--0---------------------------|--0---------------------------|

|---7-----------5--------3--|--2-----0-----------------|
|---------0-----------5-----|--------------3-----------|
|*-----0-----0-----6--------|-----2-----2--------0-----|
|*--------------------------|-----------------0--------|
|---------------0-----------|--0-----------------------|
|---0-----------------------|--------------3--------2--|

--0-----3p--2--3--------0--|-----0--------------------|
---------------------1-----|--3-----3-----0--------0--|
-----0------------0--------|--------------------0-----|
---------------------------|--0--------------0--------|
---------------3-----------|--------------------------|
--0------------------------|--------------3-----------|

--7-----------5--------3--|--2-----0-----------------|
--------0-----------5-----|--------------3-----------|
-----0-----0-----6--------|-----2-----2--------0-----|
--------------------------|-----------------0--------|
--------------0-----------|--0-----------------------|
--0-----------------------|--------------3--------2--|

--0-----3p--2--3--------0--|--------------0------------||
---------------------1-----|--4--2--4------------------||
-----0------------0--------|-----------------------0--*||
---------------------------|--------------------2-----*||
---------------3-----------|--2--------------2---------||
--0------------------------|--------------0------------||

----------0-------------0-----|----------0-------------0-----|
------0-------------2------2--|------0-------------2------2--|
----0---0----0----2---2-------|----0---0----0----2---2-------|
------------------------------|------------------------------|
----------------0-------------|----------------0-------------|
--0---------------------------|--0---------------------------|
          
--0----------------||
--0----------------||
--0----------------||
-------------------||
-------------------||
--0----------------||
 
 
Свернуть Распечатать

Видео