Зачем удалили Цоя?
Отвечаем в отдельной теме

Red Hot Chili Peppers - Tear, аккорды

Прокрутка
Тональность
Шрифт
100
                             /------ x4 -----|
e|-----------------|-----------------------|---------------|
B|-----------------|-----------------------|---------------|
G|-9-10-12-10-9----|-----------------------|-------9-------|
D|--------------10-|----9-10-12-10-9----9--|----10---12p10-|
A|-----------------|-10--------------10----|-12------------|
E|-----------------|-----------------------|---------------|
 
e|-----------------|-----------------------|
B|-----------------|-----------------------|
G|-9-10-12-10-9----|------------10-9-------|
D|--------------10-|----9-10-12------12-10-|
A|-----------------|-10--------------------|
E|-----------------|-----------------------|

 /------ x3 ------------------|
E|---------------|------------|
B|---------------|------------|
G|-------9-------|--------9---|
D|----10---12p10-|-----12-----|
A|-12------------|-12--10-----|
E|---------------|------------|
 
 
Свернуть Распечатать

Видео