Зачем удалили Цоя?
Отвечаем в отдельной теме

Red Hot Chili Peppers - Venice Queen, аккорды

Прокрутка
Тональность
Шрифт
100
Tunning: EADG

bass comes in with drums a few seconds into the song
  verse/intro
G|----------------------------------------------------------------------------|
D|----------------------------------------------------------------------------|
A|77777777777777-5-6-77777777777777-5-6-77777777777777-5-6-77777777777777-5-6-|
E|----------------------------------------------------------------------------|

  bridge part or watever
G|-------------------------------|   just keep playing this over again for a
D|-------------------------------|   couple of minutes until mood changes and
A|3-3-3--3-3-33-0-0-0--0-0-00----|   it is like this....
E|-------------------------------|

  
G|------------------------------------------------------------|
D|2-22------2-22------2-22------2-2-2-2-2/-12-12-12-12-12----|
A|-----3-2-0-----3-2-0-----3-2-0------------------------------|
E|------------------------------------------------------------|
play that part over again 4 times i think and go onto this part

G|-------------------------------------------------------------------------|
D|7-7-7-7-7-7-7-77-7-------------------------------------------------------|
A|-------------------8-8-8-8-8-8-8-88-8-7-7-7-7-7-7-7-77-7-5-5-5-5-5-55-5--|
E|-------------------------------------------------------------------------|
   it goes something like that. you might need to change it to
   your feel of the song but that is something like it and the drums stop here and guitar and bass play the same thing with a little variation like this

G|-----------------------------------------------------------------------------|
D|7-7-7-7-7-77-7---------------------------------------------------------------|
A|---------------8-8-8-8-8-88-8-7-7-7-7-7-7-77-7-5-5-5-5-55-5-7/12-12-12-12-12-|
E|-----------------------------------------------------------------------------|
   play that about 4 times and then that should be about it
 
 
Свернуть Распечатать

Видео