Запрещают песни Цоя, Агата Кристи, Наутилус Помпилиус, Зиверт
Отвечаем в отдельной теме

Red Hot Chili Peppers - The Zephyr Song, аккорды

Прокрутка
Тональность
Шрифт
100
Solo 1:

e|17-17-15-17--17-15-17-12/13-12-|-12-12-10-12--12-10-12-7/8-7-|
B|-------------------------------------------------------------|
G|-------------------------------------------------------------|
D|-------------------------------------------------------------|
A|-------------------------------------------------------------|
E|-------------------------------------------------------------|

e|17-17-15-17-----15-17-12/13-12-|-12-12-10-12--12-12-10-7/8-7-|
B|-------------------------------------------------------------|
G|-------------------------------------------------------------|
D|-------------------------------------------------------------|
A|-------------------------------------------------------------|
E|-------------------------------------------------------------|

 Solo 2:
 D                  G         A
e|5----5----5----5----5----------3----3---------5----5---|
B|--7----7----7----7----7------3----3----3----5----5-----|
G|----7----7----7----7----7--4----4----4----6----6-----6-|
D|-------------------------------------------------------|
A|-------------------------------------------------------|
E|-------------------------------------------------------|

 D
E|----5----5----5----5----5-|
B|--7----7----7----7----7---|
G|7----7----7----7----7-----|
D|--------------------------|
A|--------------------------|
E|--------------------------|

  G          A   G A
E|-----3----3----------5-7--9---|
B|---3----3-----3----5---8--10--|
G|-4----4-----4----6-----7--9---|
D|------------------------------|
A|------------------------------|
E|------------------------------|

D                    G         A
E|----5----5-------------------------3----3---------5----5---|
B|--7----7----7--8----7----7-------3----3----3----5----5-----|
G|7----7----7-------7----7----7--4----4----4----6----6-----6-|
D|---------------------7----7--------------------------------|
A|-----------------------------------------------------------|
E|-----------------------------------------------------------|

 D                    G         A  G A  D
E|----5----5-------------------------3----3-----5---7--9---10|
B|--7----7----7--8----7----7-------3----3----3--5---8--10--10|
G|7----7----7-------7----7----7--4----4----4----6---7--9---11|
D|---------------------7----7--------------------------------|
A|-----------------------------------------------------------|
E|-----------------------------------------------------------|

Am
Can I get your hand to write on
G
Just a piece of lead to bite on
Em
What Am I to fly my kite on
F
Do you want to flash your light on
Am                G
Take a look its on display - for you
Em              F
Coming down no not today


Did you meet your fortune teller
Get it off with no propellor
Do it up it?s always stellar
What a way to finally smell her
Pick it up it?s not to strong - for you
Take a piece and pass it on

Chorus:
D
Fly away on my Zephyr
G       A
I feel it more then ever
D
And in this perfect weather
G         A
We?ll find a place together

Verse 2:

Am G Em F
Fly on my wing
Riddlin on liberator
Find a way to be a skater
Rev it up to levitator
Super mainly aviator
Take a look its on display - for you
Coming down no not today

Chorus:

Fly away on my Zephyr
I feel it more then ever
And in this perfect weather
We?ll find a place together

In the water where the scent of my emotion
All the world will pass me by
Fly away on my Zephyr
We?ll find a place together

Verse 3:

Whoa whoa whoa whoa whoa whoa - Do you
Yeah yeah yeah yeah yeah yeah
Whoa whoa whoa whoa whoa whoa - won?t you
Yeah yeah yeah yeah yeah yeah

Chorus:

Fly away on my Zephyr
I feel it more then ever
And in this perfect weather
We?ll find a place together

In the water where the scent of my emotion
All the world will pass me by
Fly away on my Zephyr
We?re gonna live forever…

Forever…
 
 

Видео