Запрещают песни Цоя, Агата Кристи, Наутилус Помпилиус, Зиверт
Отвечаем в отдельной теме

Red Hot Chili Peppers - Around The World, аккорды

Прокрутка
Тональность
Шрифт
100
GUITAR
E|--12----12-12---12----12-12----12----12-12--|
B|--12----12-12---12----12-12----12----12-12--|
G|--14^---14-14r--14^---14-14r---14^---14-14r-|
D|--------------------------------------------|
A|--------------------------------------------|
E|--------------------------------------------|

BASS ( arranged for guitar )
E|------------------------------------------------|
B|------------------------------------------------|
G|-7h9-9---7h9-9---7h9-9---7h9-7------------------|
D|-------------------------------9--8--7--5-------|
A|-------------------------------------------7--5-|
E|------------------------------------------------|

VERSE repeat as many times as needed. Pick near the bridge for
the twangy sound.
E|-------------------------|
B|-------------------------|
G|-------------------------|
D|-3-5-3-5-3-5---0-3-5-3-5-|
A|-------------------------|
E|-------------------------|

CHORUS repeat a few times:
E|--------------------------------------------------|
B|--------------------------------------------------|
G|--------------------8------------------------10-8-|
D|-10--10----8-8-10-----10---8h10-10---8-10-10------|
A|--------------------------------------------------|
E|--------------------------------------------------|

E|------------------|
B|------------------|
G|-------------8----|
D|-8h10----------10-|
A|------10-11-------|
E|------------------|

FUNKY BASS PART (it sounds really cool so I transcribed it for
guitar)
E|--------------------------------------------------|
B|--------------------------------------------------|
G|-----10--12--------9--10-----10--12------10-9-----|
D|----------------------------------------------8~~-|
A|--------------------------------------------------|
E|--3---------0--1----------3---------0-1-----------|

E|---------------------------------------------------|
B|---------------------------------------------------|
G|-----10--12--------9--10-----10--12----------------|
D|-------------------------------------------3-2-----|
A|-----------------------------------------1-----1---|
E|--3---------0--1----------3----------1-3---------1-|
 
 

Видео