Запрещают песни Цоя, Агата Кристи, Наутилус Помпилиус, Зиверт
Отвечаем в отдельной теме

Red Hot Chili Peppers - Nobody Weird Like Me (bass), аккорды

Прокрутка
Тональность
Шрифт
100
Verse 1
G|---5---7----5---7----5---7---5---7-----5---7---...--12-12^^-|
D|-0---0---0----0---0----0---0---@----0----0---0-...----------|
A|------------------------------------------------...----------|
E|------------------------------------------------..-----------|

Chorus
G|---------------------|
D|---------------------|
A|-3----5---3----------|
E|--0--------0---3---5-|

Bridge
G|-------------7-7-9-|
D|----7-7--9-9-------|
A|--7----------------|
E|-------------------|

Solo :
G|-12-11-10-11-10-9-8-7-6-7-8-7-6-7-6-5-4-3-2-3-|
D|----------------------------------------------|
A|----------------------------------------------|
E|----------------------------------------------|
 
 

Видео