Зачем удалили Цоя?
Отвечаем в отдельной теме

Red Hot Chili Peppers - On Mercury (bass), аккорды

Прокрутка
Тональность
Шрифт
100
Intro: 
g--------------------------------------------------- ||Repeat x's
d---4-4-----55-44-22---777------7-------44-55-44----||
a-2------2-------------------77------77-------------||
e--------------------------------------------------- ||Then,

||g-------------------------------------
||d-5-5-x5-5-5-5-x5-x4-4-4-x4-4-4-4-x4--
||a-------------------------------------
||e-------------------------------------

g------------------------------------- || Repeat Two Times After the
d5-5-x5-5-5-5-x5-x4-4-x4-4-4-16-16----|| According Solo.
a-------------------------------------||
e------------------------------------- ||

Chorus:
g--------4-----------7----------9-----------9--
d-----4----------7----------7------------9-----
a-x2---------x5---------x0----------x7---------
e----------------------------------------------

g--------4----------7--------- || Repeat and then go back to the
d-----4----------7------------|| Intro and so on.
a-x2---------x5---------------||
e------------------------x5~-- ||

Solo:
g---------------------------------- ||
d-55-44-22------------44-55-44-----||Then you go back to the Intro.
a------------------77--------------||And end on the Chorus.
e---------------------------------- ||
 
 
Свернуть Распечатать

Видео