Запрещают песни Цоя, Агата Кристи, Наутилус Помпилиус, Зиверт
Отвечаем в отдельной теме

Red Hot Chili Peppers - Dont Forget Me, аккорды

Прокрутка
Тональность
Шрифт
100
Bass Verse
G|--9-X-X-X-X-5-X-X-X-X-12-X-X-X-X-7-X-X-|-|-REPEAT-----|
D|--7-X-X-X-X-3-X-X-X-X-10-X-X-X-X-5-X-X-|-|-THROUGHOUT-|
A|----X-X-X-X---X-X-X-X----X-X-X-X---X-X-|-|------------|
E|---------------------------------------|-|------------|

Guitar Verse (W/DELAY)
(open e -stacatto phrasing=pick notes with great intensity)
E|-0-0-0-0-0-0-0-0-0-0-0-0-0-0-0-0-|
B|---------------------------------|
G|---------------------------------|
D|---------------------------------|
A|---------------------------------|
E|---------------------------------|

E|-0-0-0-0-0-0-0-0-0-0-0-0-0-0-0-0-|
B|---------------------------------|
G|---------------------------------|
D|---------------------------------|
A|---------------------------------|
E|---------------------------------|

E|-5--7-5-7-5-7-5-7-5-7-5-7-5-7-5-7-|
B|----------------------------------|
G|----------------------------------|
D|----------------------------------|
A|----------------------------------|
E|----------------------------------|

E|-5-7-5-7-5-7-5-7-5-7-5-7-5-7-5-7-|
B|---------------------------------|
G|---------------------------------|
D|---------------------------------|
A|---------------------------------|
E|---------------------------------|

E|-5--8-5p0-8-5p0-8-5p0-8-5p0-8-5p0-|
B|----------------------------------|
G|----------------------------------|
D|----------------------------------|
A|----------------------------------|
E|----------------------------------|

E|-8-5p0-8-5p0-8-5p0-8-5p0-8-5p0-8-5-|
B|-----------------------------------|
G|-----------------------------------|
D|-----------------------------------|
A|-----------------------------------|
E|-----------------------------------|

Guitar Chorus
E|---------------------------|-R---|--15-15-15-15-15-15-15--|
B|---------------------------|-E---|--15-15-15-15-15-15-15--|
G|---------------------------|-P-X2|--17171717171717-|
D|--A5---F5---C5--------G5---|-E---|------------------------|
A|---------------------------|-A---|------------------------|
E|---------------------------|-T---|------------------------|

Bass Chorus (DISTORTION)
G|--14----14--------------17----17--12---14--14-|
D|--14--14------15----15--17--17----12-14--14---|
A|--12----------15--15----15--------10----------|
E|--------------13------------------------------|

G|--14----14--------------------------------12-----------------|
D|--14--14------15----15-----14-12-----12/14--14-12-14-12------|
A|--12----------15--15----15------15-12------------------15-12-|
E|--------------13---------------------------------------------|

Guitar interlude (Bass play Verse)
E|-------------------------------------------------------------|
B|-17-17-17-17-------------------------------------------------|
G|-------------12-12-12-12-14-14-14-14-14-14-14-14-14-14-14-14-|
D|-------------------------------------------------------------|
A|-------------------------------------------------------------|
E|-------------------------------------------------------------|

E|--------------------------15-h-17-|
B|-------------17-17-17-17----------|
G|-14-14-14-14----------------------|
D|----------------------------------|
A|----------------------------------|
E|----------------------------------|

E|-------------------------------------------------------------|
B|-17-17-17-17-------------------------------------------------|
G|-------------12-12-12-12-14-14-14-14-14-14-14-14-14-14-14-14-|
D|-------------------------------------------------------------|
A|-------------------------------------------------------------|
E|-------------------------------------------------------------|

E|----------------------------------|
B|----------------------------------|
G|-14(14)-14--14-12----14---12----|
D|--------------------14---------14-|
A|----------------------------------|
E|----------------------------------|

Solo (Bass Play Chorus)
E|---------------------------------------------|
B|---------------------------------------------|
G|--14-12-----14-12-------14-12----14---12-----|
D|--------14--------14-14-------14----------14-|
A|---------------------------------------------|
E|---------------------------------------------|
 
 

Видео