Зачем удалили Цоя?
Отвечаем в отдельной теме

Red Hot Chili Peppers - Get Up And Jump, аккорды

Прокрутка
Тональность
Шрифт
100
Main Riffs
G|---3------XX-------XX-------XX-------XX--------|
D|-----------------------------------------------|
A|-----5--------3---------5--------3---------3h5-|
E|-----------------------------------------------|
 
G|---3------XX-------XX-------XX-------XX------------|
D|---------------------------------------------------|
A|-----5--------3---------5--------3-----------------|
E|-----------------------------------------------3h4-|

G|---3------XX-------XX-------XX-------XX-----------|
D|--------------------------------------------------|
A|-----5-------------------5------------------------|
E|---------------3--------------------3---------3h4-|

Verieations
G|---3------XX-------XX-------XX-------XX---------|
D|--------------------------3---------------------|
A|-----5--------3-------------------3---------3h5-|
E|------------------------------------------------|

G|---3------XX-------XX-------XX-------X----------|
D|------------------------------------------------|
A|-----5-------------------5------------------3h5-|
E|---------------3--------------------3h4---------|
 
 
Свернуть Распечатать

Видео