Запрещают песни Цоя, Агата Кристи, Наутилус Помпилиус, Зиверт
Отвечаем в отдельной теме

Red Hot Chili Peppers - Blood Sugar Sex Magik, аккорды

Прокрутка
Тональность
Шрифт
100
intro
E|-----------------------------------|
B|-----------------------------------|
G|9---12-14/16-12/14-7/9---Palm mute-|
D|7---10-12/14-10/12-5/7-7-7-7-7-----|
A|-----------------------------------|
E|-----------------------------------|

E|-------------------------------|
B|-------------------------------|
G|9---11-12/14-11/12-6/7---------|
D|7---9--10/12--9/10-4/5-5-5-5-5-|
A|-------------------------------|
E|-------------------------------|

verse

A|-0-0-0-0-0-0-0-0-0-0-0-0-0-0-0-0-0

with wah, stress 3th 7th, 11th notes etc.

Riff

E|--------------------------------------|
B|--------------------------------------|
G|-------------------------7------------|
D|----------------------------9-8-7-----|
A|----------7---5--7~~~~~~-----------10-|
E|0---0--0------------------------------|

E|-------------------------------------|
B|-------------------------------------|
G|-------------------------------------|
D|-------------------------------------|
A|----------7---5--7--~~---------4---5-|
E|0---0--0------------------3--5-------|

substitute:

E|---------------------|
B|---------------------|
G|---------13---11--13-|
D|---------14---12--14-|
A|---------------------|
E|0---0--0-------------|

E|----------------13---------------------------|
B|----9--9--9--9--13 trem. -----12-12-12-12-12-|
G|---10-10-10-10--13     -----12-12-12-12-12-|
D|---10-10-10-10----------------12-12-12-12-12-|
A|----8--8--8--8----------------10-10-10-10-10-|
E|---------------------------------------------|

G|----------12---------------------12h14-12----------|
D|-14-12-14-----14-12-14---14-12-14---------14-12-14-|

ending of interlude:

G|------12b(13)-----------| wah-wah!!!!
D|--------------14-12-14--|
 
 

Видео