Запрещают песни Цоя, Агата Кристи, Наутилус Помпилиус, Зиверт
Отвечаем в отдельной теме

Red Hot Chili Peppers - Sickamickanico, аккорды

Прокрутка
Тональность
Шрифт
100
Intro

   Play 5 times
E||-------------------------------------------|
B||-------------------------------------------|
G||-@--0-0-0-0-3-0-0-0-3-0-0-0-3-0-0-0-0-5--@-|
D||-@--0-0-0-0-3-0-0-0-3-0-0-0-3-0-0-0-0-5--@-|
A||-------------------------------------------|
E||-------------------------------------------|

   Last time play this
E||-------------------------------------||
B||-------------------------------------||
G||---0-0-0-0-3-0-0-0-3-0-0-3-0-0-3-0---||
D||---0-0-0-0-3-0-0-0-3-0-0-3-0-0-3-0---||
A||-------------------------------------||
E||-------------------------------------||

Verse 1

E||---------------------------------------|
B||---------------------------------------|
G||-@--0-0-0-0-3-0-0-0-3-0-0-3-0-0-3-0--@-|
D||-@--0-0-0-0-3-0-0-0-3-0-0-3-0-0-3-0--@-|
A||---------------------------------------|
E||---------------------------------------| x3

   Play 3 times
E||-------------------------------------------|
B||-------------------------------------------|
G||-@--0-0-0-0-3-0-0-0-3-0-0-0-3-0-0-0-0-5--@-|
D||-@--0-0-0-0-3-0-0-0-3-0-0-0-3-0-0-0-0-5--@-|
A||-------------------------------------------|
E||-------------------------------------------|

    Last time play this
E||-------------------------------------||
B||-------------------------------------||
G||---0-0-0-0-3-0-0-0-3-0-0-3-0-0-3-0---||
D||---0-0-0-0-3-0-0-0-3-0-0-3-0-0-3-0---||
A||-------------------------------------||
E||-------------------------------------||

Verse 2

E||---------------------------------------|
B||---------------------------------------|
G||-@--0-0-0-0-3-0-0-0-3-0-0-3-0-0-3-0--@-|
D||-@--0-0-0-0-3-0-0-0-3-0-0-3-0-0-3-0--@-|
A||---------------------------------------|
E||---------------------------------------| x3

Pre-Chorus

   B5           D
E||--------------------------------------|
B||-----------------------7-x-x-7-x-7----|
G||-@---------------------7-x-x-7-x-7--@-|
D||-@--9-9-9-9-9-9-9-9----7-x-x-7-x-7--@-|
A||----9-9-9-9-9-9-9-9-------------------|
E||----7-7-7-7-7-7-7-7-------------------| x4

Chorus

E||------------------------------|--------------------------------|
B||------------------------------|--------------------------------|
G||--4-4-4-4--4-4-4-4--x-x--5-5--|--4-4-4-4--4-4-4-4--x-x--7--5---|
D||--4-4-4-4--4-4-4-4--x-x--5-5--|--4-4-4-4--4-4-4-4--x-x--7--5---|
A||--2-2-2-2--2-2-2-2--x-x--3-3--|--2-2-2-2--2-2-2-2--x-x--5--3---|
E||------------------------------|--------------------------------| x2

Verse 3

E||---------------------------------------|
B||---------------------------------------|
G||-@--0-0-0-0-3-0-0-0-3-0-0-3-0-0-3-0--@-|
D||-@--0-0-0-0-3-0-0-0-3-0-0-3-0-0-3-0--@-|
A||---------------------------------------|
E||---------------------------------------| x3

   Play 3 times
E||-------------------------------------------|
B||-------------------------------------------|
G||-@--0-0-0-0-3-0-0-0-3-0-0-0-3-0-0-0-0-5--@-|
D||-@--0-0-0-0-3-0-0-0-3-0-0-0-3-0-0-0-0-5--@-|
A||-------------------------------------------|
E||-------------------------------------------|

   Last time play this
E||-------------------------------------||
B||-------------------------------------||
G||---0-0-0-0-3-0-0-0-3-0-0-3-0-0-3-0---||
D||---0-0-0-0-3-0-0-0-3-0-0-3-0-0-3-0---||
A||-------------------------------------||
E||-------------------------------------||

Verse 4

E||---------------------------------------|
B||---------------------------------------|
G||-@--0-0-0-0-3-0-0-0-3-0-0-3-0-0-3-0--@-|
D||-@--0-0-0-0-3-0-0-0-3-0-0-3-0-0-3-0--@-|
A||---------------------------------------|
E||---------------------------------------| x3

Pre-Chorus

   B5           D
E||--------------------------------------|
B||-----------------------7-x-x-7-x-7----|
G||-@---------------------7-x-x-7-x-7--@-|
D||-@--9-9-9-9-9-9-9-9----7-x-x-7-x-7--@-|
A||----9-9-9-9-9-9-9-9-------------------|
E||----7-7-7-7-7-7-7-7-------------------| x4

Chorus

E||------------------------------|--------------------------------|
B||------------------------------|--------------------------------|
G||--4-4-4-4--4-4-4-4--x-x--5-5--|--4-4-4-4--4-4-4-4--x-x--7--5---|
D||--4-4-4-4--4-4-4-4--x-x--5-5--|--4-4-4-4--4-4-4-4--x-x--7--5---|
A||--2-2-2-2--2-2-2-2--x-x--3-3--|--2-2-2-2--2-2-2-2--x-x--5--3---|
E||------------------------------|--------------------------------| x2

Interlude

E||------------|-----------------------|---------|-----------|
B||------------|-----------------------|---------|-----------|
G||-@----------|----9br--7-------------|---------|---------@-|
D||-@----------|-------------9--7------|---------|---------@-|
A||------------|-------------------10--|---------|-----------|
E||------0-----|-----------------------|----0----|-----0-----|

E||-------------------------------------------|
B||-------------------------------------------|
G||-@--0-0-0-0-3-0-0-0-3-0-0-0-3-0-0-0-0-5--@-|
D||-@--0-0-0-0-3-0-0-0-3-0-0-0-3-0-0-0-0-5--@-|
A||-------------------------------------------|
E||-------------------------------------------|

E||-------------------------------------||
B||-------------------------------------||
G||---0-0-0-0-3-0-0-0-3-0-0-3-0-0-3-0---||
D||---0-0-0-0-3-0-0-0-3-0-0-3-0-0-3-0---||
A||-------------------------------------||
E||-------------------------------------||
 
 

Видео