Запрещают песни Цоя, Агата Кристи, Наутилус Помпилиус, Зиверт
Отвечаем в отдельной теме

Red Hot Chili Peppers - Fight Like A Brave (bass), аккорды

Прокрутка
Тональность
Шрифт
100
G|------------5h6-|
D|----5h7-@-------|
A|--0-------0-----|
E|----------------|
 
variation 1
G|------------9---6-|
D|----5h7-@---------|
A|--0-------0---0---|
E|------------------|

Chorus
G|-------------------------------------------------------------|
D|---9-9-9-7-----------9-9-9-7---------9-9-9-7----------9-9----|
A|------------9-8-7------------9-8-------------9-8-7-----------|
E|-----------------5--------------5-6---------------5------5-0-|

Variation 2 (second riff)
G|----------6h7------------6h7-------|
D|---6h7-6---------6h7-@-------7-7p6-|
A|-0------0------0-------0-----------|
E|-----------------------------------|
 
 

Видео