Зачем удалили Цоя?
Отвечаем в отдельной теме

Red Hot Chili Peppers - Blood Sugar Sex Magik, аккорды

Прокрутка
Тональность
Шрифт
100
Intro
E|----------------------------------------------------------|
B|----------------------------------------------------------|
G|-2---5------------------------2---4-----------------------|
D|-2---5------------------------2---4-----------------------|
A|-0---3--5/7-3/5-1/3-X-X-X-X-X-0---2-3/5-2/3-----X-X-X-X-X-|
E|--------------------------------------------2/3-----------|

Section: Fill
E|--------------------------------------|
B|-------8-----------------8-10-8-------|
G|-9-7-9---9-7-9-----9-7-9--------9-7-9-|
D|--------------------------------------|
A|--------------------------------------|
E|--------------------------------------|
 
 
Свернуть Распечатать

Видео