Зачем удалили Цоя?
Отвечаем в отдельной теме

Red Hot Chili Peppers - Venice Queen, аккорды

Прокрутка
Тональность
Шрифт
100
  Riff А
E|-----7------7-------7----------|
B|---------------------------8-7-|
G|---9------9------9-------9-----|
D|-9------9------9-------9-------|
A|-------------------------------|
E|-------------------------------|
 
  Riff А, Variation
E|-----7------7-------7------7-----------------------|
B|-------------------------------8--8--8--8--8-8-8-8-|
G|---9------9------9-------9-----7--7--7--7--9-9-9-9-|
D|-9------9------9-------9-------9--9--9--9--9-9-9-9-|
A|------------------------------10-10-10-10--7-7-7-7-|
E|---------------------------------------------------|

  Riff В
E|--------------------------------7-7-|
B|--------------------------------7-7-|
G|-0-0--4-4--0-0--4-4---6-6-6-6---7-7-|
D|-2-2--5-5--2-2--5-5---7-7-7-7---7-7-|
A|-2-2--5-5--2-2--5-5---7-7-7-7---5-5-|
E|-0-0--3-3--0-0--3-3---5-5-5-5-------|

  Riff В, Play over Chords,
E|----7---10----7---10--7--7--7---7--7---|
B|---8-8-8-----8-8-8-----8--8--8---7--7--|
G|--7---7-----7---7-------9--9--9---7--7-|
D|-7---------7---------------------------|
A|---------------------------------------|
E|---------------------------------------|

  Riff С,
E|-0-0-0-0-0-0-0-0--0-0-0-0-0-0-0-0--|
B|-2-2-2-2-2-2-2-2--3-3-3-3-3-3-3-3--|
G|-2-2-2-2-2-2-2-2--2-2-2-2-2-2-2-2--|
D|-2-2-2-2-2-2-2-2--0-0-0-0-0-0-0-0--|
A|-0-0-0-0-0-0-0-0-------------------|
E|-----------------------------------|

E|-0-0-0-0-0-0-0-0--0-0-0-0-0-0-0-0-|
B|-5-5-5-5-5-5-5-5--3-3-3-3-3-3-3-3-|
G|-5-5-5-5-5-5-5-5--2-2-2-2-2-2-2-2-|
D|-5-5-5-5-5-5-5-5--0-0-0-0-0-0-0-0-|
A|-3-3-3-3-3-3-3-3------------------|
E|----------------------------------|

  Riff С, Play over Chords
E|-----------------------------------|
B|-2--2--2--2--2-2--3--3--3--3--3-3--|
G|--2--2--2--2--2----2--2--2--2--2---|
D|---2--2--2---2------0--0--0--0-----|
A|-----------------------------------|
E|-----------------------------------|

E|----------------------------------|
B|-5--5--5--5--5-5--3--3--3--3--3-3-|
G|--5--5--5--5--5----2--2--2--2--2--|
D|---5--5--5--5-------0--0--0--0----|
A|----------------------------------|
E|----------------------------------|

  Fill, Play over Riff С
E|-----------------------------------8-7--------------8-7----|
B|-8h10--------------8h10----------------10---------------10-|
G|-----------------------------------------------------------|
D|-----------------------------------------------------------|
A|-----------------------------------------------------------|
E|-----------------------------------------------------------|
 
 
Свернуть Распечатать

Видео