Запрещают песни Цоя, Агата Кристи, Наутилус Помпилиус, Зиверт
Отвечаем в отдельной теме

Red Hot Chili Peppers - Nobody Weird Like Me (bass), аккорды

Прокрутка
Тональность
Шрифт
100
INTRO(Slap Bass):
G------5h7-7-----5h7-7----5h7-7-5h7-7-5h7-7-)
D-------------------------------------------) X3
A--5-5-------5-5------5-5-------------------)
E-------------------------------------------)
 
G------5h7-7-----5h7-7-----12-12------------)
D-------------------------------------------)
A--5-5-------5-5-------5-5------------------)
E-------------------------------------------)

VERSE(Slap Bass):
G--------7-------5--------------------------)
D-------------------------------------------)
A--5-5-5---5-5-5----------------------------)
E-------------------------------------------)

CHORUS(Regular Finger-Picking):
G------------------------------------------)
D---5--------5-3---------------------------)
A-7---5-3--7-------------------------------)
E------------------------------------------)

ORDER:
Intro X1
VerseX16
ChorusX1
VerseX16
ChorusX1
VerseX20 (guitar solo)
ChorusX1
Solo
Bridge (no bassline)
 
 

Видео