Зачем удалили Цоя?
Отвечаем в отдельной теме

Red Hot Chili Peppers - Rivers Of Avalon, аккорды

Прокрутка
Тональность
Шрифт
100
INTRO AND VERSE
e|-----------------------------------------------|
B|-----------------------------------------------|
G|-----------------------------------------------|
D|--2--2--3--3---------------2--2--3--3----------|
A|--0--0--3--3--3--3--5------0--0--3--3--3--3--5-|
E|--------------3--3--5------------------3--3--5-|

CHORUS
   Dm   G   Am    Dm   G   Am
e|---1------------------1------------|
B|---3----1-----1-------3----1-----1-|
G|---2----------2-------2----------2-|
D|--------2-----2------------2-----2-|
A|--------3------------------3-------|
E|-----------------------------------|

SOLO
e|----------------------------------------------|
B|----------------------------------------------|
G|----------------------------------------------|
D|--------------14---12---10---12---------------|
A|---12----12----------------------12---12---14-|
E|----------------------------------------------|

e|--------------------------------------------------|
B|--------------------------------------------------|
G|--------------------------------------------------|
D|------------14---12---10---12---------------------|
A|---12---12---------------------12----12---14---12-|
E|--------------------------------------------------|
 
 
Свернуть Распечатать

Видео