Зачем удалили Цоя?
Отвечаем в отдельной теме

Red Hot Chili Peppers - Catholic School Girls Rule, аккорды

Прокрутка
Тональность
Шрифт
100
E|--------------------------------------------------------|
B|----------------------5-5-5-------------------------7---|
G|-------4-4------------5-5-5-----------------------5-7-5-|
D|-------4-4------------5-5-5-----------------------5-7-5-|
A|-------4-4--------------5-5--------3----------------7---|
E|-5-5-0-4-4-x-3--5-5-0-------3--5-5---5-5-3--5-5-0-------|

E|------------------------------------------------|
B|-----------------------------------------12-7-7-|
G|-----------5---------------4--4-------------7-7-|
D|-----------5-5-5-----------4--4-------------7-7-|
A|-------------5-5-----------4--4-----------------|
E|-(3)-5-5-0-------3---5-5-0-4--4-x-5-5-0---------|
 
 
Свернуть Распечатать

Видео