Зачем удалили Цоя?
Отвечаем в отдельной теме

Red Hot Chili Peppers - Dosed, аккорды

Прокрутка
Тональность
Шрифт
100
Intro
E|----------------------------------------------------------|
B|-------8--------------8--------------8------------8-10----|
G|---9-9---9-9------9-9---9-9------9-9---9-9----9-9------9--|
D|----------------------------------------------------------|
A|----------------------------------------------------------|
E|----------------------------------------------------------|
 
John plays something at the end of each line but i'm not sure
what. Heres what he plays before the end of the verse

E|----12-11-9-7-9---------12-11-9-7---|
B|----------------------------------9-|
G|------------------------------------|
D|------------------------------------|
A|------------------------------------|
E|------------------------------------|

Chorus
This is the chord pattern I use but you can make up your own
E|-------------------------------|
B|---------7-7-7-7-8-8-8-8-------|
G|-4-4-4-4-7-7-7-7-9-9-9-9-9--9--|
D|-5-5-5-5-7-7-7-7-9-9-9-9-10-10-|
A|-5-5-5-5-5-5-5-5-7-7-7-7-10-10-|
E|-3-3-3-3-----------------8--8--|

E|-----------------------------------|
B|-------------------7-7-7-7-8-8-8-8-|
G|-12-11-9-7-4-4-4-4-7-7-7-7-9-9-9-9-|
D|-----------5-5-5-5-7-7-7-7-9-9-9-9-|
A|-----------5-5-5-5-5-5-5-5-7-7-7-7-|
E|-----------3-3-3-3-----------------|

E|-------7---| the second time you play the chorus dont play the
B|-8-8-8---8-| 5,6 at the end just play this chord about X8
G|-9-9-9-----| X2            |-12-|
D|-9-9-9-----|               |-12-|
A|-7-7-7-----|   Im not too  |-14-|
E|-----------|   sure if this|-14-|
            is the right     |-12-|
            chord but it     |-12-|
            sounds alright

solo
E|-------------------------------------------------------------|
B|-------------------------------------------------------------|
G|11-9-11-9-11-9-11-9-11-9-------------11-9-11-9-11-9-11-9-11-9|
D|-------------------------11-11-11-11-------------------------|
A|-------------------------------------------------------------|
E|-------------------------------------------------------------|

E|-------------------------------------------------------------|
B|-------------------------------------------------------------|
G|-------------------------------------8-9-8-9-8-9----11-9-11-9|
D|-11-11-11-11-9-9-9-9-9-8-8-8-8-------------------9-9---------|
A|----------------------/--------9-9-9-------------------------|
E|---------------------/---------------------------------------|
 I'm not sure if this/part is right but it sounds alright
E|----------------------------|
B|----------------------------|
G|-11-9-11-9-11-9-------------|
D|----------------11-11-11-11-|
A|----------------------------|
E|----------------------------|

E|--------------------------------------|
B|--------------------------------------|
G|-11-9-11-9-11-9-11-9-11-9-------------|
D|--------------------------11-11-11-11-|
A|--------------------------------------|
E|--------------------------------------|

E|-------------------------------------------------|
B|-12-12-12-12-12-10-10-10-10-10-9-9-9-9-9---------|
G|-----------------------------------------9^-9-12-|
D|-------------------------------------------------|
A|-------------------------------------------------|
E|-------------------------------------------------|
 
 
Свернуть Распечатать

Видео