Запрещают песни Цоя, Агата Кристи, Наутилус Помпилиус, Зиверт
Отвечаем в отдельной теме

Red Hot Chili Peppers - Universally Speaking, аккорды

Прокрутка
Тональность
Шрифт
100
E|------------------------------------------------------|
B|---7--------------------------------------------------|
G|-------10p8h10p8----7878h10----878h10-----------------|
D|----------------------------------------------8-8-8-8-|
A|------------------------------------------------------|
E|------------------------------------------------------|
 
E|----------------------------------------------------------|
B|---7------------------------------------------10-10-10-10-|
G|-------10p8h10p8----7878h10----878h10---------------------|
D|----------------------------------------------------------|
A|----------------------------------------------------------|
E|----------------------------------------------------------|

E|------------------------------------------------------|
B|---7--------------------------------------------------|
G|-------10p8h10p8----7878h10----878h7------------------|
D|----------------------------------------------8-8-8-8-|
A|------------------------------------------------------|
E|------------------------------------------------------|

E|--------------------------------------------|
B|--------------------------------------------|
G|------------------------------------------8-|
D|-----8---6---5---6/5-----------8---8--------|
A|----------------------6---6-----------------|
E|--------------------------------------------|
 
 

Видео