Зачем удалили Цоя?
Отвечаем в отдельной теме

Red Hot Chili Peppers - Out In LA (bass), аккорды

Прокрутка
Тональность
Шрифт
100
Main part
G:----------------------------------------------------------
D:------------------------------------4---------------------
A:--7-5-----------5-7---5-5-4---4-5-7-----------------------
E:--------7-X-7---------------------------------------------

G:----------------------------------------------------------
D:----------------------------------------------------------
A:--7-5-----------5-7---5-5-4-5-----------------------------
E:--------7-X-7---------------------------------------------

Bass solo
G:------------7h9---------------7h9-------------------------
D:------------------------7h9-X-----------------------------
A:------5h7-X-------5h7-X-----------------------------------
E:--0-------------------------------------------------------

G:----9--7-7---------7--------------------------------------
D:-------------7h8h9---9------------------------------------
A:----------------------------------------------------------
E:--0-------------------------------------------------------

                     ^ ^ ^
G:--------------------7------10---------12-------12-13-14---
D:----------------------------------------------------------
A:--------------5h7-5------8----8----10----10---------------
E:--0-4-5-6-7-----------------------------------------------
 
 
Свернуть Распечатать

Видео