Зачем удалили Цоя?
Отвечаем в отдельной теме

Red Hot Chili Peppers - Under The Bridge, аккорды

Прокрутка
Тональность
Шрифт
100
Introduction:
 Let ring                          h       h p
E---------------------|----------------------|--------------------
B-3-------3-----------|-2--------------------|-3-----------3-5-3--
G-----2-----2---------|---------3------------|-------------------2
D---4---4-------------|-----4-----4--4-2-0---|-----4---2----------
A-5-----------4-2-0---|---4---4------------4-|-4-5---5---4--------
E-------------------4-|-2--------------------|--------------------
 (D)             (F#)             (D)

   s                     h
E--------|----------------------|--------------------------|
B--------|-2--------------------|-3-----------3------------|
G--------|---------3------------|---------2-----2----------|
D-4--6-6-|-----4-----4--4-2-0---|-----4-----4--------------|
A-5--7-7-|---4---4------------4-|-4-5---5----------4-2-0-4-|
E--------|-2--------------------|--------------------------|
       (F#)             (D)

                  h       h p   s
E----------------------|---------------------------|-2------------
B-2--------------------|-3----------3-5-3----------|--------------
G---------3------------|---------2--------2--------|--------3--3--
D-----4-----4--4-2-0---|-----4-----4--------4--6-6-|-----4---4--4-
A---4---4------------4-|-4-5---5------------5--7-7-|---4---4--4--4
E-2--------------------|---------------------------|-2------------
 (F#)             (D)                 (F#)

Verse:
E(VII)       B         C#7       G# A(V)
 Sometimes I feel like I don't have a partner
E(VII)       B         C#7      G# A(V)
 Sometimes I feel like my only friend,

E(VII) B C#7 A(V)

      E(VII)    B        C#7   G# A(V)
 Is the city I live in, the city of angel
      E(VII)    B        C#7 G# A(V)
 Lonely as I am, together we cry

E B C#7 A(V) E+7

         h p      s    p         h p
E ---------------------|----------------4--5--5-7-5---|-----------
B -9--9---7------------|-7--9-----------4--5--------5-|-9--9---7--
G -9--9---8--8-9-8---8-|-8--9-----------4--6----------|-9--9---8--
D -9--9---9--------9---|-9--11-11-9-11--6--7----------|-9--9---9--
A -7--7---9------------|-9--11-11-9-11--6--7----------|-7--7---9--
E -0--0---7------------|-7--9-----------4--5----------|-0--0---7--
  E    B           c#       g# A        E    B

   h p      s    p
E ------------|-----------------5--5-----|
B ------------|-7--9------------5----5---|
G --8-9-8---8-|-8--9------------6------6-|
D --------9---|-9--11-11-9-11---7--------|
A ------------|-9--11-11-9-11---7--------|
E ------------|-7--9------------5--------|
             c#       A

E(VII)       B         C#7       G# A(V)
 I drive on her streets cause she's my companion
E(VII)       B         C#7       G# A(V)
 I walk through her hills cause she knows who I am

E(VII)       B         C#7       G# A(V)
 She sees my good deeds and she kisses me windy
E(VII)       B         C#7       G# A(V)
 I never worry, now that is a lie

E+7

Chorus:
       F#    E(VII)    B *   F#
 I don't ever wanna feel, like I did that day
       F#    E(VII)    B *   F#
 Take me to place I love, take me all the way

       F#    E(VII)    B *   F#
 I don't ever wanna feel, like I did that day
       F#    E(VII)    B *   F#
 Take me to place I love, take me all the way

F# E(VII) B * F#

Verses:
E(VII)       B         C#7       G# A(V)
 It's hard to believe that there's nobody out there
E(VII)       B         C#7       G# A(V)
 It's hard to believe that I'm all alone

E(VII)       B         C#7       G# A(V)
 At least I have her love, the city she loves me
E(VII)       B         C#7   G# A(V)
 Lonely as I am, together we cry

E+7

Chorus:
       F#    E(VII)    B *   F#
 I don't ever wanna feel, like I did that day
       F#    E(VII)    B *   F#
 Take me to place I love, take me all the way

       F#    E(VII)    B *   F#
 I don't ever wanna feel, like I did that day
       F#    E(VII)    B *   F#
 Take me to place I love, take me all the way

F# E(VII) B * F#

Closing: 

A G F }x3 F E G

 A           A     G      F
 Under the bridge downtown, is where I drew some blood
 A           A     G      F
 Under the bridge downtown, I could not get enough

A A G F

 A          A     G     F
 Under the bridge downtown, I gave my life away

Outro: A G F }x9   

Комментарий автора:

Special chord #1:
 Let ring
E---------
B--9------
G--8------
D--9------
A--7------
E--0------
  E+7 - (E add D#)

E--11----
B--12----
G--11----
D--------
A--------
E--------
   B *
 
 
Свернуть Распечатать

Видео