Зачем удалили Цоя?
Отвечаем в отдельной теме

Red Hot Chili Peppers - Behind The Sun, аккорды

Прокрутка
Тональность
Шрифт
100
Intro part & chorus
e|-------------------|-------------------|---------------------|
B|-------------------|-------------------|---------------------|
G|-14----14----------|-------------------|---------------------|
D|-14h16-14----------|-14----14----------|------------14----14-|
A|----------16-14-16-|-14h16-14----------|-14---------14h16-14-|
E|-------------------|----------16-14-16-|-14h16-1412----------|

e|-----------------0-|
B|-----------------0-|
G|-----------------9-|
D|-------12h14-----9-|
A|-12h14-------------|
E|-------------0-----|

Verse
e|-0-0-0--0--0-0--0--0--|-0-0-0--0--0---0--0-0-|
B|-5-9-12-12-9-12-12-14-|-5-9-12-12-14-b7-r7-5-|
G|----------------------|----------------------|
D|----------------------|----------------------|
A|----------------------|----------------------|
E|----------------------|----------------------|

e|-0-0-0--0--0-0--0--0--|-0--0--0--0--0---0--0-0-|
B|-5-9-12-12-9-12-12-14-|-12-17-14-12-14-b7-r7-5-|
G|----------------------|------------------------|
D|----------------------|------------------------|
A|----------------------|------------------------|
E|----------------------|------------------------|

Interlude
e|----------------3-3-3-|-----------0-0-0-0-0-0-0-0-0-0-|
B|--2-3-2-0--2--3-------|---2-3-2-0-5-5-5-5-5-7-7-7-7-7-|
G|---2-2-2----2---------|----2-2-2----------------------|
D|----------------------|-------------------------------|
A|-0-------0------------|-0-----------------------------|
E|----------------------|-------------------------------|

e|----------------3-3-3-|-----------0-0-0-0-0--0--0--0-0--0--|
B|--2-3-2-0--2--3-------|---2-3-2-0-5-5-5-5-5-10-10-10-10-10-|
G|---2-2-2----2---------|----2-2-2---------------------------|
D|----------------------|------------------------------------|
A|-0-------0------------|-0----------------------------------|
E|----------------------|------------------------------------|
 
 
Свернуть Распечатать

Видео