Зачем удалили Цоя?
Отвечаем в отдельной теме

Red Hot Chili Peppers - Can't Stop, аккорды

Прокрутка
Тональность
Шрифт
100
E|------------------|
B|------------------|
G|------------------| x 4
D|--0h2-0h2-0h2-0h2-|
A|------------------|
E|------------------|
 
E|----------------------|
B|----------------------|
G|----------------------| x 1
D|--0h2-0h2-0h2-0---0h2-|
A|---------------0h2----|
E|----------------------|

E|------------------|
B|------------------|
G|------------------| x 3
D|--0h2-0h2-0h2-0h2-|
A|------------------|
E|------------------|

E|-----------------------------------------|
B|-----3-5-------3-5---------3-5-------3-5-|
G|-----------------------------------------|
D|-2-2-----2-2-2-----2-2-2-0-----0-0-0-----|
A|-----------------------------------------|
E|-----------------------------------------|

E|----------------------------------------------------|
B|---------3-5-------3-5---------3-5-------3-5--------|
G|----------------------------------------------------|
D|-0-0-0--------------------------------------------2-|
A|-------2-----2-2-2-----2-2-2-3-----3-3-3-----3-3-3--|
E|----------------------------------------------------|
This is the intro one, where its only the gutiar playing, a
drum role comes in on the last note then you play this 3 times.

E|--------------------------------------|
B|--3-5-------3-5---------3-5-------3-5-|
G|--------------------------------------|
D|------2-2-2-----2-2-2-0-----0-0-0-----|
A|--------------------------------------|
E|--------------------------------------|

E|----------------------------------------------------|
B|---------3-5-------3-5---------3-5-------3-5--------|
G|----------------------------------------------------|
D|-0-0-0--------------------------------------------2-|
A|-------2-----2-2-2-----2-2-2-3-----3-3-3-----3-3-3--|
E|----------------------------------------------------|

On the 4th it changes a bit
E|--------------------------------------|
B|--3-5-------3-5---------3-5-------3-5-|
G|--------------------------------------|
D|------2-2-2-----2-2-2-0-----0-0-0-----|
A|--------------------------------------|
E|--------------------------------------|

E|-------------------------------------------------------------|
B|--------3-5-----3-5---12-12--12-12-12-12--12-12--12-12-12-12-|
G|--------------------16-----14-----------11-----12------------|
D|0-0-0--------------------------------------------------------|
A|------2----2-2-2---------------------------------------------|
E|-------------------------------------------------------------|

Chorus:
E|-7-----7--7--|
B|-8--7--7--8--|
G|-7--7--9--9--|
D|----7--9--10-|
A|-------------|
E|-------------|
strum these chords

Second verse:
E|-----------------------------------------|
B|-----3-5-------3-5---------3-5-------3-5-|
G|-----------------------------------------|
D|-2-2-----2-2-2-----2-2-2-0-----0-0-0-----|
A|-----------------------------------------|
E|-----------------------------------------|

E|----------------------------------------------------|
B|---------3-5-------3-5---------3-5-------3-5--------|
G|----------------------------------------------------|
D|-0-0-0--------------------------------------------2-| x 3
A|-------2-----2-2-2-----2-2-2-3-----3-3-3-----3-3-3--|
E|----------------------------------------------------|

Then
E|--------------------------------------|
B|--3-5-------3-5---------3-5-------3-5-|
G|--------------------------------------|
D|------2-2-2-----2-2-2-0-----0-0-0-----|
A|--------------------------------------|
E|--------------------------------------|

E|-------------------------------------------------------------|
B|-------3-5------3-5---12-12--12-12-12-12--12-12--12-12-12-12-|
G|--------------------16-----14-----------11-----12------------|
D|0-0-0--------------------------------------------------------|
A|------2----2-2-2---------------------------------------------|
E|-------------------------------------------------------------|

Then chorus:
E|-7-----7--7--|
B|-8--7--7--8--|
G|-7--7--9--9--|
D|----7--9--10-|
A|-------------|
E|-------------|
strum these chords

Solo:
E|-12-12/10-10-7-7-3---12-14-10-12-7-10-5-3-|
B|------------------------------------------|
G|------------------------------------------|
D|------------------------------------------|
A|------------------------------------------|
E|------------------------------------------|

Then start this again:
E|-----------------------------------------|
B|-----3-5-------3-5---------3-5-------3-5-|
G|-----------------------------------------|
D|-2-2-----2-2-2-----2-2-2-0-----0-0-0-----|
A|-----------------------------------------|
E|-----------------------------------------|

E|----------------------------------------------------|
B|---------3-5-------3-5---------3-5-------3-5--------|
G|----------------------------------------------------|
D|-0-0-0--------------------------------------------2-| x4
A|-------2-----2-2-2-----2-2-2-3-----3-3-3-----3-3-3--|
E|----------------------------------------------------|
 
 
Свернуть Распечатать

Видео