Зачем удалили Цоя?
Отвечаем в отдельной теме

Red Hot Chili Peppers - Soul To Squeeze (bass), аккорды

Прокрутка
Тональность
Шрифт
100
Intro
G|-14--------14----14-16-14-------------------------------------------
D|-----14-16----16----------------------------------------------------
A|----------------------------0-0-0-0-0-0-0-0-0-0-0-0-0-0.............
E|--------------------------------------------------------------------

Verse
G|-----------------------------------------------
D|----------------0-2-3--------------------------
A|----------3-2-3-------1---5-5---5-8---8--------
E|-1-1--3-5---------------------5-----6---8--3-6-

Verse (variation)
G|------------------------3-3-3------------------------------------
D|----------------0-2-3--------------------------------------------
A|----------3-2-3-------1--------5-5---5-8---8---10----------8-----
E|-1-1--3-5--------------------------5-----6---8----8-6-8h10---10-8

1st Chorus
G|---------------------------------------------------
D|---7--8-10-----7-----------------------------------
A|-8----------------8-10--5-5-5-5-7-8---------10-----
E|-----------8----------------------6-6--8h10----10-8

G|----------------------------------------------
D|---7--8-10-----7h8p7--------------------------
A|-8-------------------8-10---5-5-5-5-7-8-------
E|-----------8--------------------------5-5-5-6-

2nd Chorus
G|-----------------------------------------------------
D|---7--8-10-----7-------------------------------------
A|-8----------------8-10--5-5-5-5-7-8-----------10-----
E|-----------8----------------------6-6-6--8h10----10-8

G|------------------------------------------------
D|---7--8-10-----10-8-7---------------------------
A|-8-------------------105-5-5-5-7-8--------------
E|-----------8------------------------5-5-5-6-6-6-

Guitar Solo
G|-----------------------------------------------
D|----------------0-2-3--------------------------
A|----------3-2-3-------1---5-5---5-8---8--------
E|-1-1--3-5---------------------5-----6---8--3-6-

G|-------------------------------------------------
D|----------------0-2-3----------------------------
A|----------3-2-3-------1---5-5---5-8---8----------
E|-1-1--3-5---------------------5-----6---8-8-8-8-8

Bridge
G|--7---10/12---------5------5----
D|-------8/10-----5h7----5h7---7--    x3
A|-5-----------------------------3
E|--------------------------------
  sp   p     s  p s  p s s

G|--7---10/12------------
D|-------8/10------------
A|-5---------------------
E|-------------5-5-5-6-6-
  sp   p

3rd Chorus
G|: ------------------------------------------------------------
D|: --7--8-10-----7-7-8-7-----------------7---------------------
A|: 8--------------------8-105-5-5-5-7h8---------------10-------
E|: ----------8-----------------------------6-6-6--8h10----10-8-

G|---------------10/12-10----------------------------------------------------
D|---7---8---10---------------------7-8-10-8-7-------------------------------
A|8----8---8-----------------7-8-10------------10--5-5-5-5-5-7-8-------------
E|-------------------------8-------------------------------------5-5-5-6-6-6-

G|-------------10/12-10---------------------------------------------------------
D|--7---8---10--------------------7-8/10-7h8----------------7--------------------
A|8---8---8----------------7-8-10------------105-5-5-5-7h8--------------10-------
E|-----------------------8------------------------------------6-6-6-8h10----10-8-

G|------------10/12-10--------------------------------------------------
D|---7-7-8-10------------10-12-10--8-10-8--7-8-7------------------------
A|-8---------------------------------------------5-5-5-5-5-7-8----------
E|--------------------8----------------------------------------5-5-5-61-
 
 
Свернуть Распечатать

Видео