Запрещают песни Цоя, Агата Кристи, Наутилус Помпилиус, Зиверт
Отвечаем в отдельной теме

Red Hot Chili Peppers - Porcelain (bass), аккорды

Прокрутка
Тональность
Шрифт
100
G|-----6---------------6-------|(x4)
D|-------7---------------7-----|
A|--5------5--------5----------|
E|-----------5----5--------2---|
 
G|---------------------------------|
D|---------------------------------|
A|--2----------2------------2------|
E|----2-5------------5--------2-5--|

G|--------------|
D|-----------2--|
A|--------2-----|
E|--0--4--------|

Repeat everything once then...

G|------------------------------|
D|------------------------------|
A|--2-----2--2/42-------2-------|
E|----2-5----------5-------2-5--|

G|-----------9/119-----------------|
D|---------------------------------|
A|--------2-----------5--let ring--|
E|--0--4---------------------------|
 
 

Видео