Запрещают песни Цоя, Агата Кристи, Наутилус Помпилиус, Зиверт
Отвечаем в отдельной теме

Red Hot Chili Peppers - Parallel Universe (bass), аккорды

Прокрутка
Тональность
Шрифт
100
 INTRO
G-------------|-------------------------------------------------|
D-X-X-X-X-X-X-|-10-10-10-10-10-10-10-10-10-10-10-10-10-10-10-10-|
A-------------|-------------------------------------------------|
E-------------|-------------------------------------------------|
 
G-------------------------------------------------|--------------------------
D-10-10-10-10-10-10-10-10-10-10-10-10-10-10-10-10-|-8-8-8-8-8-8-8-8-8-8-8-8-8
A-------------------------------------------------|--------------------------
E-------------------------------------------------|--------------------------

G-------------------------------------------------|-------------------------
D-12-12-12-12-12-12-12-12-12-12-12-12-12-12-12-12-|-13-13-13-13-13-13-13-13-
A-------------------------------------------------|------------------------10
E-------------------------------------------------|--------------------------

                                 ENDBASS NO.1
G------------------------------|12-12-12-12-12-10-10-10-10------------------
D------------------------------|--------------------------13-13-13-13-12-12-
A-10-10-10-10-10-10-10-10-10-10|--------------------------------------------
E------------------------------|--------------------------------------------

 DEEP IN - SIDE OF А PAR - AL-LEL   U - NI - VERSE

                                    BASS FILL 1 1ST TIME
                                    BASS FILL 2 2ND TIME
 iT'S GET-TING HARD-ER AND HARD - ER WHAT CAME FIRST,

                                    BASS FILL 1
UN - DER WA - TER WHERE THOUGHTS CAN BREATH,

CHORUS:
   Christ      i'm    a       side  -  wind - er,   i'm a
G----------------------------------------------|-----------------------------
D-10-10-10-10-10-10-10-10-10-10-10-10-10-------|-----------------------13-13-
A----------------------------------------10-10-|11-11-11-11-11-11-11-11------
E----------------------------------------------|-----------------------------

   cal - i - for - nia   king.
G------------------------------------------|--------------------------------
D------------------------------------------|--------------------------------
A-10-10-10-10-10-10-10-10-10-10-10-10-10-10|10-10-10-10-10-10-10-10-10-10-10-
E------------------------------------------|--------------------------------

   I   SWEAR  IT' S   ЕV  -     RY       WHERE
G---------------------------------------|----------------------------------|
D10-10-10-10-10-10-10-10-10-------------|------------------13-13-13-13-13--|
A---------------------------10-10-10-10-|11-11-11-11-11-11---------------10|
E---------------------------------------|----------------------------------|

 IT'S  ЕV  - EY   THING
                               END BASS FIG.2
G-----------------------------|------------------------|------------------
D-----------------------------|------------------------|-------------------
A10-10-10-10-10-10-10-10-10-10|10-10-10-10-10-10-10-10-|10-10-10-10-10-10--
E-----------------------------|----------------------10|-----------------10

INTERLUDE:
G-----------------------------------------
D10-10-10-10------------------------------ (SWITCH HIT)
A-----------10-10-10-10-11-11-11-11-8-8-8 BASS THEN GUITAR X4
E-----------------------------------------


                                BASS FILL 3, 2ND TIME
                                BASS FILL 4, 3RD TIME
                                BASS FILL 5, 4TH TIME
G---------------------------------------|----------------------------|
D-10-10-10-10-10-10-10-10-10-10-10-10-10|8-8-8-8-8-8-8-8-8-8-8-8-8-8-8
A---------------------------------------|----------------------------|
E---------------------------------------|----------------------------|

G--------------------------------|-----------------------|12-12-10-10--------
D-13-13-13-13-13-13-13-13-13-13--|-----------------------|-----------13-13-12
A------------------------------10|10-10-10-10-10-10-10-10|-------------------
E--------------------------------|-----------------------|-------------------

BASS FILL 1
G-12-12-12-12-10-10-10-10-----------------------|
D------------------------13-13-13-13-12-12-13-13|
A-----------------------------------------------|
E-----------------------------------------------|

BASS FILL 2
G--------------------------------------------|
D---------------------13-13-13-13-12-12-12-12|
A-10-10-10-10-10-10-10-----------------------|
E--------------------------------------------|

BASS FILL 3
G---------------------------------------------------|
D-10-10-10-10-10-10-10-10-10-10-10-10-10-10-10-12-12|
A---------------------------------------------------|
E---------------------------------------------------|

BASS FILL 4
G--------------------------------------------|
D-10-10-10-10-10-10-10-10-10-8-8-8-----------|
A---------------------------------10-10-10-10|
E--------------------------------------------|

BASS FILL 5
G------------------------------------------------|
D-10-10-10-10-10-10-10-10-10-10-10-10-12-12-12-12|
A------------------------------------------------|
E------------------------------------------------|
 
 

Видео