Зачем удалили Цоя?
Отвечаем в отдельной теме

Red Hot Chili Peppers - Parallel Universe (bass), аккорды

Прокрутка
Тональность
Шрифт
100
Intro
G|---------------------------------|
D|---------------------------------|
A|-3-3-3-3-3-3-3-3-3-3-3-3-3-3-3-3-|
E|---------------------------------|

G|---------------------------------|
D|---------------------------------|
A|-3-3-3-3-3-3-3-3-3-3-3-3-3-3-3-3-|
E|---------------------------------|

G|---------------------------------|
D|---------------------------------|
A|---------------------------------|
E|-6-6-6-6-6-6-6-6-6-6-6-6-6-6-6-6-|

G|---------------------------------|
D|---------------------------------|
A|---------------------------------|
E|-6-6-6-6-6-6-6-6-6-6-6-6-6-6-6-6-|

G|---------------------------------|
D|---------------------------------|
A|-5-5-5-5-5-5-5-5-5-5-5-5-5-5-5-5-|
E|---------------------------------|

G|---------------------------------|
D|---------------------------------|
A|-6-6-6-6-6-6-6-6-6-6-6-6-6-6-6-6-|
E|---------------------------------|

G|---------------------------------|
D|---------------------------------|
A|---------------------------------|
E|-3-3-3-3-3-3-3-3-3-3-3-3-3-3-3-3-|

G|---------------------------------|
D|-5-5-5-5-3-3-3-3-1-1-1-1-0-0-0-0-|
A|---------------------------------|
E|---------------------------------|

Verse: Intro (x2)

Chorus: (x2)
G|---------------------------------|
D|---------------------------------|
A|-3-3-3-3-3-3-3-3-3-3-3-3---------|
E|-------------------------3-3-3-3-|

G|---------------------------------|
D|---------------------------------|
A|-----------------6-6-6-6-6-6-6-6-|
E|-4-4-4-4-4-4-4-4-----------------|

G|---------------------------------|
D|---------------------------------|
A|---------------------------------|
E|-3-3-3-3-3-3-3-3-3-3-3-3-3-3-3-3-|

G|---------------------------------|
D|---------------------------------|
A|---------------------------------|
E|-3-3-3-3-3-3-3-3-3-3-3-3-3-3-3-3-|

Verse: Intro (x2)

Chorus: (x4)

Interlude: (x4)
G|---------------------------------|
D|---------------------------------|
A|-3-3-3-3-------------------------|
E|---------3-3-3-3-4-4-4-4-1-1-1-1-|

Verse: Intro (x2)

Chorus: (x4)
Solo Part / Ending: Intro (x4)
 
 
Свернуть Распечатать

Видео