Зачем удалили Цоя?
Отвечаем в отдельной теме

Red Hot Chili Peppers - Universally Speaking, аккорды

Прокрутка
Тональность
Шрифт
100
Intro and verse: 
                D                           e7 
E|-2-2-2---2--2-2--2-2--2-2----3-3-3---3--3-3--3-3--3-3-| 
B|-3-3-3---3--3-3--3-3--3-3----3-3-3---3--3-3--3-3--3-3-| 
G|-2-2-2---2--2-2--2-2--2-2----4-4-4---4--4-4--4-4--4-4-| 
D|-0-0-0---0--0-0--0-0--0-0----0-0-0---0--0-0--0-0--0-0-| 
A|------------------------------------------------------| 
E|------------------------------------------------------| 
 
Chorus: 
              A                           Amaj7 
E|-0-0-0---0--0-0--0-0--0-0----0-0-0---0--0-0--0-0--0-0-| 
B|-2-2-2---2--2-2--2-2--2-2----2-2-2---2--2-2--2-2--2-2-| 
G|-2-2-2---2--2-2--2-2--2-2----1-1-1---1--1-1--1-1--1-1-| 
D|-2-2-2---2--2-2--2-2--2-2----2-2-2---2--2-2--2-2--2-2-| 
A|-0-0-0---0--0-0--0-0--0-0----0-0-0---0--0-0--0-0--0-0-| 
E|------------------------------------------------------| 
 
       G            B       A      B       E 
E|-3-3-3--3-3---------------0--------------0-| 
B|-3-3-3--3-3---------------1--------------0-| 
G|-4-4-4--4-4----4-4--4-4---2---4-4--4-4---0-| 
D|-5-5-5--5-5----4-4--4-4---2---4-4--4-4---2-| 
A|-5-5-5--5-5----2-2--2-2---0---2-2--2-2---2-| 
E|-3-3-3--3-3------------------------------0-| 
 
Solo:  
E|-2-0-0-----------0------0-----------| 
B|---3--3-2--3-2-3--3-2-3-------------| 
G|--------------------------2-2--2-2--| 
D|------------------------------------| 
A|------------------------------------| 
E|------------------------------------| 
 
E|-2-0-0-----------0------0--4/5-5--5-5-| 
B|---3--3-2--3-2-3--3-2-3---------------| 
G|--------------------------------------| 
D|--------------------------------------| 
A|--------------------------------------| 
E|--------------------------------------| 
 
E|-2-0-0-----------0----------------------------------------| 
B|---3--3-2--3-2-3--3-2-3-2-----------------------------2/3-| 
G|--------------------------2-2--2-2---2-0----------2--2----| 
D|----------------------------------------4-4br-0-0---------| 
A|----------------------------------------------------------| 
E|----------------------------------------------------------|
 
 
Свернуть Распечатать

Видео