Зачем удалили Цоя?
Отвечаем в отдельной теме

Red Hot Chili Peppers - Purple Stain (btab), аккорды

Прокрутка
Тональность
Шрифт
100
 Verse 1:
 G|------------------------------------ 
 D|------12---------------------------- 
 A|------------------------3--5--------
 E|--x0-------10----0---5------4--2---- 
 
 G|------------------------------------- 
 D|------12----------------------------- 
 A|-----------------------4--3---------- 
 E|--x0-------10----0---2------4--5-----
 
 G|----------------------------------- 
 D|------12--------------------------- 
 A|-----------------------10b8b6b----- 
 E|--x0-------10----0-----------------
 
 G|---------------------------------- 
 D|------12-------------------------- 
 A|------------------------------4---
 E|--x0-------10----0---2--3--4------
  
Chorus 1: 
 G|------------------------------------ 
 D|----5-7-7---5-7-7---5-7-7---5-7-7--- 
 A|--7-------7-------7-------7--------- 
 E|------------------------------------ 
 
 G|--------------------------5--------- 
 D|----5-7-7---5-7-7---5-7-7---7-5----- 
 A|--7-------7-------7----------------- 
 E|------------------------------------  (x2) 
 
Verse 2:
 G|------------------------------------ 
 D|------12---------------------------- 
 A|------------------------4--5-------- 
 E|--x0-------10----0---5------4--3----
 
 G|------------------------------------ 
 D|------12---------------------------- 
 A|------------------------3--4--5----- 
 E|--x0-------10----0---2---------4----
 
 G|----------------------------------- 
 D|------12--------------------------- 
 A|-------------------------10b8b6b--- 
 E|--x0-------10----0-----------------
 
 G|------------------------------------ 
 D|------12---------------------------- 
 A|-------------------------------4---- 
 E|--x0-------10----0---2--3--5--------
  
Chorus 2: 
 G|--------------------------5--------- 
 D|----5-7-7---5-7-7---5-7-7---7-5----- 
 A|--7-------7-------7----------------- 
 E|------------------------------------  (x4) 
 
No Name 1:
 G|------------------------- 
 D|-------------0--2----2--- 
 A|---------0h2------------- 
 E|--3--3-------------0-----   (x8) 
 
Verse 3: 
 G|---------- 
 D|---------- 
 A|---------- 
 E|--0--10-- 
 
 G|------------------------------------ 
 D|------12--------------------------- 
 A|------------------------3--5-------- 
 E|--x0-------10----0---5------4--3--- 
 
 G|------------------------------------ 
 D|------12--------------------------- 
 A|---------------------------------1-- 
 E|--x0-------10----0---2--3--4--5---- 
 
 G|------------------------------------ 
 D|------12--------------------------- 
 A|------------------------10b8b6b--- 
 E|--x0-------10----0----------------- 
 
 G|------------------------------------ 
 D|------12--------------------------- 
 A|------------------------------------ 
 E|--x0-------10----0---2--3--4------- 
 
Chorus 3: 
 G|------------------------------------ 
 D|----5-7-7---5-7-7---5-7-7---5-7-7--- 
 A|--7-------7-------7-------7--------- 
 E|------------------------------------ 
 
 G|--------------------------5---------  (x4) 
 D|----5-7-7---5-7-7---5-7-7---7-5----- 
 A|--7-------7-------7----------------- 
 E|------------------------------------ 
 
No name 2: 
 G|------------------------- 
 D|-------------0--2----2--- 
 A|---------0h2------------- 
 E|--3--3-------------0-----   (x8) 
 
Outro:
 G|------------------------------------ 
 D|----14---14---14---14--------12----- 
 A|-----------------------12/14----14-- 
 E|--12---12---12---12-----------------
 
 
Свернуть Распечатать

Видео