Зачем удалили Цоя?
Отвечаем в отдельной теме

Red Hot Chili Peppers - Save The Population, аккорды

Прокрутка
Тональность
Шрифт
100
Intro 
 e------------------10-10---------------------8-8---| 
 B--8-11-----------------------8-11-----------------| 
 G-------10--8-7--------------------10--8-7---------| 
 D--------------------------------------------------| 
 A--------------------------------------------------| 
 E--------------------------------------------------| 
 
 e---------------------------------------------| 
 B--8-11------------10-10---10^-8----6/8-6-----| 
 G-------10--8-7----------------------------7--| 
 D---------------------------------------------| 
 A---------------------------------------------| 
 E---------------------------------------------| 
 
Verse (basically just alterations of the Intro) 
 e------------------13-13-13-13-------------------11-11-11--| 
 B--8-11------------13-13-13-13---8-11----------------------| 
 G-------10--8-7-----------------------10--8-7--------------| 
 D----------------------------------------------------------| 
 A----------------------------------------------------------| 
 E----------------------------------------------------------| 
 
 e-----------------10-10-10-10--8-8-8-8--6-6-6-6--5-5-5-5--4-4-4-4--| 
 B--8-11-----------10-10-10-10--8-8-8-8--6-6-6-6--5-5-5-5--4-4-4-4--| 
 G-------10--8-7----------------------------------------------------| 
 D------------------------------------------------------------------| 
 A------------------------------------------------------------------| 
 E------------------------------------------------------------------| 
 
2nd Verse (an alteration of the 1st verse, deeper sounding) 
 e----------------------------------------------------| 
 B---------------------------------------------7-7----| 
 G------------------------------------------5--7-7----| 
 D--5--8--------8/10-10-10-10---5--8------------------| 
 A--------6-5-------------------------6-5-------------| 
 E----------------------------------------------------| 
 
 e----------------------------------------------2-2-2--| 
 B---------------7--7h8-------------------------2-2-2--| 
 G-----------------------7----------------------2-2-2--| 
 D--5--8-------------------------5--8------------------| 
 A--------6-5--------------------------6-5-------------| 
 E-----------------------------------------------------| 
 
Pre Chorus 
 e--3-x-x-3-x-x-3-x-x-3-x-x-3/--6-x-x-6-x-x-6-x-x-6-x-x-6--| 
 B--3-x-x-3-x-x-3-x-x-3-x-x-3/--6-x-x-6-x-x-6-x-x-6-x-x-6--| 
 G--3-x-x-3-x-x-3-x-x-3-x-x-3/--6-x-x-6-x-x-6-x-x-6-x-x-6--| 
 D---------------------------------------------------------| 
 A---------------------------------------------------------| 
 E---------------------------------------------------------| 
 
 e--11-11-11-11-11-11-11-11--8-8-8-8-8-8-8-8--10-10-10-10-10-----13-13-13--| 
 B--11-11-11-11-11-11-11-11--8-8-8-8-8-8-8-8--10-10-10-10-10-----13-13-13--| 
 G--11-11-11-11-11-11-11-11--8-8-8-8-8-8-8-8--10-10-10-10-10-----13-13-13--| 
 D-------------------------------------------------------------------------| 
 A-------------------------------------------------------------------------| 
 E-------------------------------------------------------------------------| 
 
Chorus 
 e-------15------------------------------------------------------| 
 B-----------15-------13-15-13-15----------15------13-15-13-15---| 
 G--12-----------12-----------------12-12------12----------------| 
 D---------------------------------------------------------------| 
 A---------------------------------------------------------------| 
 E---------------------------------------------------------------| 
 
 e---------------------------------------------------------| 
 B---------15------13-15-13-15-----------15------13-15-13--| 
 G--12-12------12-----------------12-12------12------------| 
 D---------------------------------------------------------| 
 A---------------------------------------------------------| 
 E---------------------------------------------------------| 
 
 e---15-------14-------------------------| 
 B---------------------13--13-15-13-15---| 
 G-------12--------12--------------------| 
 D---------------------------------------| 
 A---------------------------------------| 
 E---------------------------------------| 
 
Twangy fill during Chorus 
 e-----------| 
 B-----------| 
 G--3h5--3~--| 
 D-----------| 
 A-----------| 
 E-----------| 
 
Chords over Chorus 
 e-----------------| 
 B-----------------| 
 G--3-----5--------| 
 D--3-----5-----5--| 
 A--1-----3-----5--| 
 E--------------3--|
 
 
Свернуть Распечатать

Видео