Зачем удалили Цоя?
Отвечаем в отдельной теме

Red Hot Chili Peppers - Punk Rock Classic (btab), аккорды

Прокрутка
Тональность
Шрифт
100
Verse 
 G|------------7---9--|------------7---9--|------------7---9--| 
 D|-------------------|-------------------|-------------------| 
 A|--0-0-0-0-5---7----|--0-0-0-0-5---7----|--0-0-0-0-5---7----| 
 E|-------------------|-------------------|-------------------| 
 
 G|------------7---9--| 
 D|-------------------| 
 A|--0-0-0-0-5---7----| 
 E|-------------------| 
 
Chorus 
 G|------------|------------|------------|------------| 
 D|------------|------------|------------|------------| 
 A|--10-9-3-5--|--10-9-3-5--|--10-9-3-5--|--10-9-3-5--| 
 E|------------|------------|------------|------------| 
 
Interlude 			Guitar Solo 
 G|------------------------------||-----------| 
 D|------------------------------||-----------| 
 A|--10-9-7-6-5-4-3-2-0----------||---(7)-(7)-| 
 E|---------------------4-3-2-0--||--0-0-0-0--|
 
 
Свернуть Распечатать

Видео