Запрещают песни Цоя, Агата Кристи, Наутилус Помпилиус, Зиверт
Отвечаем в отдельной теме

Red Hot Chili Peppers - Californication (бас табы), аккорды

Прокрутка
Тональность
Шрифт
100
[Intro]
[Verse Part 1]
G|-----9--7-h-9-p-7------------7-7--------------9--7-h-9-p-7-----------10-10-7-----------|
D|-7-7----------------10--------------10---7-7-----------------10------------------------|
A|------------------------8-8--------------------------------------8-8-------------------|
E|---------------------------------------------------------------------------------------|
 
[Verse Part 2]
    And If you want these kind of dreams...
G|---------------------------------------------------------------------------------------|
D|---------------------------------------------------------------------------------------|
A|-3-3-3-3----------------5-5-5-5--------------------------------------------------------|
E|---------3-3-3-3-1-1-1-1---------------------------------------------------------------|
 
[Pre-Chorus]
    Pay your surgoen very well...
G|-------------------------------------------------------------------7--------|
D|-7-7-7-7-7-7-9-10---------------10-9----7-7-7-7-7-7-9-10--------------10-9--|
A|------------------8-8-8-8-8-8-8------10------------------8-8-8-8-8----------|
E|----------------------------------------------------------------------------|
 
then play this at the end of the pre-verse.
G|---------------------------------------------------------------------------------------|
D|-15-15-15-15-15-15-15-15-15------------------------------------------------------------|
A|---------------------------------------------------------------------------------------|
E|---------------------------------------------------------------------------------------|
 
[Chorus]
    Dream of Californiation...
G|---------------------------------------------------------------------------------------|
D|---------------------------------------------------------------------------------------|
A|-3-3-----5-5---0-0---3-5-3-2---2-3-5--5-5-5--5-5--5-5--5-5-5-5-------------------------|
E|-----3-3---------------------3---------------------------------------------------------|
 
[Solo Part 1]
G|---------------------------------------------------------------------------------------|
D|-19-18-16--12--19-18-16--12-------------------------------14----14---------------------|
A|-----------------------------14----14--17----17--12----12----14------------------------|
E|--------------------------------14--------17--------12---------------------------------|
 
G|---------------------------------------------------------------------------------------|
D|-19-18-16--12--19-18-16--12-------------------------------14----14---------------------|
A|-----------------------------14----14--17----17--12----12----14-----14-----------------|
E|--------------------------------14--------17--------12---------------------------------|
 
G|---------------------------------------------------------------------------------------|
D|--------------------------14----14-----------------------------------------14----14----|
A|---14--17----17--12----12----14--------14----14----17----17----12----12-------14----14-|
E|14--------17--------12--------------------14----14----17----17----12----12-------------| 

Комментарий автора:

для бас гитары 
 
 
Свернуть Распечатать

Аппликатуры аккордов

помощники
1,809 2 04.02.2022

Видео