Зачем удалили Цоя?
Отвечаем в отдельной теме

Red Hot Chili Peppers - Californication, аккорды

Прокрутка
Тональность
Шрифт
100
Main Riff: (Play riff during all couplets)
                     Am                       F     
E---------------------------------------------------|
B-------------0----1--------------------------------|
G-------------------------------------------0----2--|
D--------2------------------------------------------|
A---0-------------------------------3---------------|
E-----------------------------1---------------------|

Am
Psychic spies from China
       F
Try to steal your mind's elation
Am
Little girls from Sweden
         F
Dream of silver screen quotations
   C                G
And if you want these kind of dreams
    F         Dm
It's Californication

Main riff: x2
                     Am                       F     
E---------------------------------------------------|
B-------------0----1--------------------------------|
G-------------------------------------------0----2--|
D--------2------------------------------------------|
A---0-------------------------------3---------------|
E-----------------------------1---------------------|

       Am
It's the edge of the world
           F
And all of western civilization
   Am
The sun may rise in the East
           F
At least it settles in the final location
    C                G
It's understood that Hollywood
      F        Dm
Sells Californication

Am F }x2

Am
Pay your surgeon very well
   F
To break the spell of aging
  Am
Celebrity skin is this your chin
 F
Or is that war your waging

Chorus:
Am            F
First born unicorn
Am            F
Hard core soft porn
C           G     F
Dream of Californication
C            G   Dm
Dream of Californication

Main riff: x2
                     Am                       F     
E---------------------------------------------------|
B-------------0----1--------------------------------|
G-------------------------------------------0----2--|
D--------2------------------------------------------|
A---0-------------------------------3---------------|
E-----------------------------1---------------------|

Am
Marry me girl be my fairy to the world
      F
Be my very own constellation
Am
А teenage bride with a baby inside
       F
Getting high on information
    C                   G
And buy me a star on the boulevard
    F        Dm
It's Californication

Main riff: x2
                     Am                       F     
E---------------------------------------------------|
B-------------0----1--------------------------------|
G-------------------------------------------0----2--|
D--------2------------------------------------------|
A---0-------------------------------3---------------|
E-----------------------------1---------------------|

Am
Space may be the final frontier
        F
But it's made in a Hollywood basement
Am
Cobain can you hear the spheres
        F
Singing songs off station to station
    C            G
And Alderon's not far away
     F       Dm
It's Californication

Chords: Am F }x2

Am
Born and raised by those who praise
   F                 Am
Control of population everybody's been here and
  F
I don't mean on vacation

Chorus:
Am            F
First born unicorn
Am            F
Hard core soft porn
C           G     F
Dream of Californication
C            G   Dm
Dream of Californication
C           G     F
Dream of Californication
C            G   Dm
Dream of Californication

Guitar solo:
E--5-9-4s2---5-9-4s2---2-2-2-0-----------0--4s2-0---5-9-12-14--5-9-12-16s14--17-16-|
B-----------------------------------2-2--0-2------------0--------------------------|
G----------------------------------------------------------------------------------|
D----------------------------------------------------------------------------------|
A----------------------------------------------------------------------------------|
E----------------------------------------------------------------------------------|

E-14--12--14--12-9--12-9repeat-9-12-9--16s14-12-9-12-9--7--5--12--10--9-|
B-----------------------------------------------------------------------|
G-----------------------------------------------------------------------|
D-----------------------------------------------------------------------|
A-----------------------------------------------------------------------|
E-----------------------------------------------------------------------|

Main riff: x2
                     Am                       F     
E---------------------------------------------------|
B-------------0----1--------------------------------|
G-------------------------------------------0----2--|
D--------2------------------------------------------|
A---0-------------------------------3---------------|
E-----------------------------1---------------------|

Am
Destruction leads to a very rough road
       F
But it also breeds creation
   Am
And earthquakes are to a girl's guitar
       F 
They're just another good vibration
   C                     G
And tidal waves couldn't save the world 
    F        Dm
From Californication

Chords: Am F }x2

Am
Pay your surgeon very well
   F
To break the spell of aging
Am
Sicker than the rest, there is no test
   F
But this is what you're craving

Chorus:
Am            F
First born unicorn
Am            F
Hard core soft porn
C           G     F
Dream of Californication
C            G   Dm
Dream of Californication
C           G     F
Dream of Californication
C            G   Dm
Dream of Californication
 
 
Свернуть Распечатать

Видео