Зачем удалили Цоя?
Отвечаем в отдельной теме

Red Hot Chili Peppers - Californication, аккорды

Прокрутка
Тональность
Шрифт
100
Intro:
e-------------------------------------------
b-------0---1-------------------------------
g----------------------------------0------2- x4
d----2--------------------------------------
a-0---------------------------3-------------
e-----------------------1-------------------

Am                      
Psychic spies from china 
                     F            
try to steal your minds elazation. 
                      Am
Little girls from Sweeden 
F                                
Dream of silver screen quotations. 
          C                        G 
And if you want these kind of dreams 
     F           Dm
It's Californication.

Am
Its the edge of the world 
                     F  
And all of western civization
                     Am
The sun may rise in the east
F
At least it settles in the final location
          C                G 
It`s understood that Hollywood 
     F           Dm
Sell Californication.

Pre-Chorus:
Am                        
Pay your surgeon very well 
                Fmaj7       
to break the spell of ageing. 
                         Am     
Celebrity skin is this your chin 
       Fmaj7
or is that the war your waging?      
Am           Fmaj7  Am           Fmaj7 
First born unicorn hard core soft porn.

Chorus:
C                G7 Dm9 Am     
Dream of Californication               
C                G7 Dm9
Dream of californication
C                G7 Dm9 Am     
Dream of Californication               
C                G7 Dm9
Dream of californication

Am
Marry me girl, be my fairy to the world, 
                     F  
Be my very own constellation
                     Am
А teenage bride with a baby inside 
F
Getting high on information
          C                    G 
And buy me a star on the boulevard, 
     F           Dm
It's Californication

Am
Space may be the final frontier 
                     F  
But it's made in a Hollywood basement
                     Am
And Cobain can you hear the spheres 
F
Singing songs off Station To Station?
          C              G 
And Alderaan's not far away, 
     F           Dm
It's Californication

Pre-Chorus:
Am
Born and raised by those 
                Fmaj7      
Who praise control of population
             Am
Everybody's been there 
                Fmaj7      
And I don't mean on vacation
Am           Fmaj7  Am           Fmaj7 
Firstborn unicorn, hardcore soft porn

Chorus:
C                G7 Dm9 Am     
Dream of Californication               
C                G7 Dm9
Dream of californication
C                G7 Dm9 Am     
Dream of Californication               
C                G7 Dm9
Dream of californication

Am
Destruction leads to a very rough road 
                     F  
But it also breeds creation
                     Am
And earthquakes are to a girl's guitar, 
F
They're just another good vibration
          C              G 
And tidal waves couldn't save the world 
     F           Dm
From Californication

Pre-Chorus:
Am
Pay your surgeon very well 
                Fmaj7      
To break the spell of aging
                          Am
Sicker than the rest, there is no test 
                Fmaj7      
But this is what you're craving?
Am           Fmaj7  Am           Fmaj7 
Firstborn unicorn, hardcore soft porn

Chorus:
C                G7 Dm9 Am     
Dream of Californication               
C                G7 Dm9
Dream of californication
C                G7 Dm9 Am     
Dream of Californication               
C                G7 Dm9
Dream of californication

Solo: (with slight distortion)
e-----9--------------9-----------------------------------------------------
b-10------------10---------------------------------------------------------
g----------^11----------^11---11--11--11-/-9-------------9----^11---9------
d----------------------------------------------11---9---11--------------11-
a--------------------------------------------------------------------------
e--------------------------------------------------------------------------

e------9---12---14-------9--12---^14---14---17--16--14--------------------------
b-10-----------------10----------------------------------17----14---14----14----
g----------------------------------------------------------------------^16--^16-
d-------------------------------------------------------------------------------
a-------------------------------------------------------------------------------
e-------------------------------------------------------------------------------

e------------------------^14---12-------12----------------12---10---9------
b-14----14---17----14--------------14------14---12---10-----------------10-
g-^16--^16-----------------------------------------------------------------
d--------------------------------------------------------------------------
a--------------------------------------------------------------------------
e--------------------------------------------------------------------------

e-------------------------------------------
b-------0---1-------------------------------
g----------------------------------0------2- x4
d----2--------------------------------------
a-0---------------------------3-------------
e-----------------------1-------------------
 
 

Видео