Запрещают песни Цоя, Агата Кристи, Наутилус Помпилиус, Зиверт
Отвечаем в отдельной теме

Red Hot Chili Peppers - Californication, аккорды

Прокрутка
Тональность
Шрифт
100
Intro (Riff 1): x6
E--------------------
B--------------------
G-------4-5------0-2-
D---2----------------
A---0------------3---
E-------------1------

Riff 2: 
E---------------------------------------------
B---------------------------------------------
G-------5-5---------------7-7-----------------
D-------5-5----5-5--------7-7-----7-7-------5-
A----3---------5-5------5---------7-7-------5-
E------------3------------------5---------3---

Riff 1 x6

E---------------------
B---------------------
G-------4-5------0-2--
D---2-----------------
A---0------------3----
E-------------1------------------------------------------------------------------ 

Riff 2: 
E---------------------------------------------
B---------------------------------------------
G-------5-5---------------7-7-----------------
D-------5-5----5-5--------7-7-----7-7-------5-
A----3---------5-5------5---------7-7-------5-
E------------3------------------5---------3---

Riff 3 Then play this оnе x6:
E---------------
B---1-----------
G-----2---------
D-----2-------3-
A-------------3-
E-----------1---

Riff 4: 
E-----------------------
B-----------------------
G-------5-------------7-
D-------5----5--------7-
A----3-------5------5---
E----------3------------

Riff 1: x6
E--------------------
B--------------------
G-------4-5------0-2-
D---2----------------
A---0------------3---
E-------------1------

Riff 2: 
E---------------------------------------------
B---------------------------------------------
G-------5-5---------------7-7-----------------
D-------5-5----5-5--------7-7-----7-7-------5-
A----3---------5-5------5---------7-7-------5-
E------------3------------------5---------3---

Riff 1: x6
E--------------------
B--------------------
G-------4-5------0-2-
D---2----------------
A---0------------3---
E-------------1------

Riff 2: 
E---------------------------------------------
B---------------------------------------------
G-------5-5---------------7-7-----------------
D-------5-5----5-5--------7-7-----7-7-------5-
A----3---------5-5------5---------7-7-------5-
E------------3------------------5---------3---

Riff 3: Then play this оnе x6
E----------------
B---1------------
G-----2----------
D-----2-------3--
A-------------3--
E-----------1----

Riff 4: 
E-----------------------
B-----------------------
G-------5-------------7-
D-------5----5--------7-
A----3-------5------5---
E----------3------------

Sоlо: 
E------5----9-----(4)2---5----9----(4)2-
B---------------------------------------
G---------------------------------------
D---------------------------------------
A---------------------------------------
E---------------------------------------

E--(2)---2---2-(0)h/о------------------0---(4)---0------
B----------------------2---2---0---2------------------2-
G-------------------------------------------------------
D-------------------------------------------------------
A-------------------------------------------------------
E-------------------------------------------------------
- 
e----5---9---12---14-----5---9---12---16---14-
b---------------------------------------------
g---------------------------------------------
d---------------------------------------------
A---------------------------------------------
E---------------------------------------------

E----17---16---14---12---14---12-------12-------------
B----------------------------------14------14---13bx3-
G-----------------------------------------------------
D-----------------------------------------------------
A-----------------------------------------------------
E-----------------------------------------------------

E----12---9---16---12-------12-----------------12---10---9---5- 
B-----------------------14------14---12---10------------------- 
G-------------------------------------------------------------- 
D-------------------------------------------------------------- 
A-------------------------------------------------------------- 
E-------------------------------------------------------------- 

Riff 1: x6
E--------------------
B--------------------
G-------4-5------0-2-
D---2----------------
A---0------------3---
E-------------1------

Riff 2:
E---------------------------------------------
B---------------------------------------------
G-------5-5---------------7-7-----------------
D-------5-5----5-5--------7-7-----7-7-------5-
A----3---------5-5------5---------7-7-------5-
E------------3------------------5---------3---

Riff 3: Then play this оnе x6
E---------------
B---1-----------
G-----2---------
D-----2-------3-
A-------------3-
E-----------1---

Riff 4: End After this This Riff
E-----------------------
B-----------------------
G-------5-------------7-
D-------5----5--------7-
A----3-------5------5---
E----------3------------
 
 

Видео