Запрещают песни Цоя, Агата Кристи, Наутилус Помпилиус, Зиверт
Отвечаем в отдельной теме

Red Hot Chili Peppers - Californication (solo), аккорды

Прокрутка
Тональность
Шрифт
100
Solo:
e|--10-----------10------------------------------------------------
b|9------------9---------------------------------------------------
g|-----11^r-11------11^^r-11-11-11-11-11p9------------9-11^r-9-----
d|-----------------------------------------11-11-9-11----------11--
a|-----------------------------------------------------------------
E|-----------------------------------------------------------------

e|--10-12-14~---10-12-14^^r-14~-17-16-14----14----------------------------
b|9-----------9--------------------------17----17-14-17-14------14^r-14^r-
g|---------------------------------------------------------16^r-16^r-16^r-
d|------------------------------------------------------------------------
a|------------------------------------------------------------------------
E|------------------------------------------------------------------------

e|--------------------------------------------------
b|17-14-14--19^^r-17----17----------17-15-14--------
g|-------------------18----18-16-14----------14~~~--
d|--------------------------------------------------
a|--------------------------------------------------
E|--------------------------------------------------
 
 

Видео