Запрещают песни Цоя, Агата Кристи, Наутилус Помпилиус, Зиверт
Отвечаем в отдельной теме

Red Hot Chili Peppers - Californication, аккорды

Прокрутка
Тональность
Шрифт
100
Intro:
       A           F
e|-----------------------|
B|------0-1--------------|
G|------------------0-2--|
D|---2-------------------| x2
A|-0-------------3-------|
E|------------1----------|

   A   F
|--0---1--|
|--1---1--|
|--2---2--|
|--2---3--|
|--0---3--|
|--0---1--|

Chorus:
Dream of californication...
    C     G     D     A
|---0-----3-----1-----0---|
|---1-----3-----3-----1---|
|---0-----0-----2-----2---|
|---2-----0-----0-----2---|
|---3-----2-----0-----0---|
|---3-----3-----0-----0---|

Solo:
|-----9-------------9--------------------------------------------------|
|--10------------10----------------------------------------------------|
|-------11/1311------11/1311--11-11-11-9-----------9-11^13-13-11-------|
|------------------------------------------11--9-11----------------11--|
|----------------------------------------------------------------------|
|----------------------------------------------------------------------|

|-----9--12-14-----9-12--16^-14---17-16-14-12-14-12-----12---12---12---12----|
|--10-----------10----------------------------------14----14---14---14---14--|
|----------------------------------------------------------------------------|
|----------------------------------------------------------------------------|
|----------------------------------------------------------------------------|
|----------------------------------------------------------------------------|

|-16-14-12----12-----------12-10-9------|
|----------14----14-12-10----------10~--|
|---------------------------------------|
|---------------------------------------|
|---------------------------------------|
|---------------------------------------|
 
 

Видео